rock
 
|tablatures   |lyrics   |discussion forums   |more tabs @ XGuitar.com

Jethro Tull tabs

Living In The Past guitar tab

Living In The Past 

  F/C(fret 8)                Fsus4 
|---------r-------------------10------|| 
|-10------e--------------------------*|| 
|-----10--s---------10--8------------*|| 
|---------t--8--11--------------------|| 

   F/C(fret 8)      D#    A# 
||---------r---------8-----------| 
||*--------e-----10--------8-----| 
||*--8--8--s--8------------------| 
||---------t---------------------| 

  C(fret 8) 
|--------r---------------------------||---------r--------------| 
|10------e-------------10-----------*||--10-----e--------------| 
|----10--s---------10---------------*||---------s--------------| 
|--------t--8--11-------------8------||---------t--------------| 

 F(8)                             G(fret 10)            Gsus4 
|------r-----------------------|----------r-----------------------------| 
|------e-----------------------|----------e-----------------------------| 
|8--8--s-----8-----8-----8-----|--10--10--s------10------10-----10------| 
|------t--8-----8--------------|----------t--10------10-----------------| 

     G(10)                  Gsus4 
||-----------r-----------------------------|| 
||*----------e--------------12-----12-----*|| 
||*--10--10--s------10--------------------*|| 
||-----------t--10------10-----------------|| 

     D(fret 10)                   G(10) 
||-----------r----------------------------|| 
||*--12--12--e------12-------------9-----*|| 
||*----------s--12------12--10-----------*|| 
||-----------t----------------------------|| 

    D(10) 
|-----------r------------------------------| 
|---12--12--e------12------12-----12-------| 
|-----------s--12------12------------------| 
|-----------t------------------------------| 

VERSES: 

     C                    A#     F 
||-------12--r-------------------10------|| 
||*--10------e--13p12--10--8------------*|| 
||*----------s--------------------------*|| 
||-----------t---------------------------|| 

   C 
|-------12--r-----------------------------| 
|---10------e--10--10--10--10-------------| 
|-----------s---------------------10------| 
|-----------t-----------------------------| 

    F                   D#     A# 
||----------r------------8---------------|| 
||*-----10--e-----7--10--------8--------*|| 
||*--8------s--8------------------------*|| 
||----------t----------------------------|| 

       C                 A#     F 
||------5--5--r-----5------------------|| 
||*-----------e--5-----5--8-----7-----*|| 
||*-----------s-----------------------*|| 
||------------t------------------------|| 

FINE 

    C 
|---5--5--r-----5-----5-----5-----|| 
|---------e--5-----5--------------|| 
|---------s-----------------------|| D.C. al FINE 
|---------t-----------------------||
  development and support by
dmitry ivanov