rock
 
|tablatures   |lyrics   |discussion forums   |more tabs @ XGuitar.com

Jethro Tull tabs

Kelpie bass tab

Kelpie
Jethro Tull
Transcribed by Justin Benz


0:00
G---|--------------------------------------|------------------------------------
D---|--------------------------------------|------------------------------------
A---|--2-----2--2-----2--2-----2--2--------|------------------------------------
E---|-----------------------------------5--|--3-----3--3--2--3--5-----0--2------



G------2--|--4-----------------------------------|------------------------------
D---4-----|--------------------------------------|------------------------------
A---------|--------2--2-----2--2-----2--2--------|------------------------------
E---------|-----------------------------------5--|--3-----3--3--2--3--2---------



G---------------|--------------------------------------|------------------------
D---------------|--------------------------------------|------------------------
A------1--2--4--|--2-----2--2-----2--2-----2--2--------|------------------------
E---2-----------|-----------------------------------5--|--3-----3--3--2--3------



G------------------2--|--4-----------------------------------|------------------
D---------------4-----|--------------------------------------|--5---------------
A---------------------|--------2--2-----2--2-----2--2-----0--|------------------
E---5-----0--2--------|--------------------------------------|-----3------------


0:15
G---------------|--------------------7-----11-----9--7--|-----------------------
D---4-----------|--------9--9--7--9---------------------|--9-----9--9--7--9-----
A---------------|---------------------------------------|-----------------------
E------2--------|--7------------------------------------|-----------------------



G----------------7--9--|--11--------------7--7--9--11--11--9--7--|--11----------
D-------9--7--9--------|---------7--7--9-------------------------|--------------
A---10-----------------|-----------------------------------------|--------------
E----------------------|-----------------------------------------|--------------



G---11--11--9--11------------------7--|--9-----9--9--7--------------------------
D------------------------7--9--11-----|-----------------11--7-----7--7--9-------
A------------------9------------------|-----------------------------------------
E-------------------------------------|-----------------------------------------



G-------|----------------------------------------------|---------11--11--9------
D---11--|--12-----12--12--10--9-----------------9--12--|--12--------------------
A-------|------------------------10--9--10--10---------|------------------------
E-------|----------------------------------------------|------------------------



G------2-----------------|--------------------------|-----------------7---------
D---12\---4--2--0--2--4--|--4-----------7-----------|-----9--9--7--9------------
A------------------------|--------------------------|---------------------------
E------------------------|-----2-----------5--------|---------------------------



G---11-----9--7--|---------------------------------7--9--|--11------------------
D----------------|--9-----9--9--7--9------9--7--9--------|---------7--7--9------
A----------------|--------------------10-----------------|----------------------
E----------------|---------------------------------------|----------------------



G---7--7--9--11--11--9--7--|--11-----11--11--9--11------------------7--|--9-----
D--------------------------|------------------------------7--9--11-----|--------
A--------------------------|------------------------9------------------|--------
E--------------------------|-------------------------------------------|--------



G------9--9--7-------------------------|----------------------------------------
D---------------11--7-----7--7--9--11--|--12-----12--12--10--9------------------
A--------------------------------------|------------------------10--9--10-------
E--------------------------------------|----------------------------------------



G--------------|---------11--11--9-----2-----------------|----------------------
D-------9--12--|--12----------------12\---4--2--0--2--4--|--2-----------4-------
A---10---------|-----------------------------------------|----------------------
E--------------|-----------------------------------------|-----0-----------2----


0:47
G---------------|-----------------------|---------------------------------------
D---------------|-----------------------|---------------------------------------
A---------------|-----------------------|--2-----2--2-----2--2-----2--2---------
E---2--2--2-----|--------3-----5-----5--|--------------------------------5------



G------|--------------------------------------|---------------------------------
D------|--------------------------------------|-----------------4---------------
A------|--------------------------------------|--5-----5--5---------------------
E------|--3-----3--3--2--3--5-----5--5-----5--|--------------------2-----2------



G------------|--------------------------------------|--------------------|------
D------------|--------------------------------------|--------------------|------
A------------|--------------------------------------|--5-----5--4-----5--|------
E---2-----2--|--3-----3--3--2--3--5-----5--5-----5--|--------------------|------



G--------------------------|-----------------------------------------|----------
D---------5----------------|-----------------------------------------|----------
A-------------------/12\---|--------------2--2--2--2--2--2--2--------|--2-------
E---3-----------3----------|--5-----5--------------------------------|----------



G---------------------------------|-----------------------------------2--|------
D---------------------------------|--------------------------------4-----|------
A---2--2-----2--2-----2--2--------|--------------------------------------|------
E------------------------------5--|--3-----3--3--2--3--5-----0--2--------|------


1:10
G---4-----------------------------------|-----------------------|---------------
D---------------------------------------|--5-----------4--------|-----9--9------
A---------2--2-----2--2-----2--2-----0--|-----------------------|---------------
E---------------------------------------|-----3-----------2-----|---------------



G---------7-----11-----9--7--|---------------------------------7--9--|--11------
D---7--9---------------------|--9-----9--9--7--9------9--7--9--------|----------
A----------------------------|--------------------10-----------------|----------
E----------------------------|---------------------------------------|----------



G---------------7--7--9--11--11--9--7--|--11-----11--11--9--11------------------
D------7--7--9-------------------------|------------------------------7--9------
A--------------------------------------|------------------------9---------------
E--------------------------------------|----------------------------------------



G-------7--|--9-----9--9--7-------------------------|---------------------------
D---11-----|-----------------11--7-----7--7--9--11--|--12-----12--12--10--9-----
A----------|----------------------------------------|---------------------------
E----------|----------------------------------------|---------------------------



G-------------------------|---------11--11--9-----2-----------------|-----------
D------------------9--12--|--12----------------12\---4--2--0--2--4--|--2--------
A---10--9--10--10---------|-----------------------------------------|-----------
E-------------------------|-----------------------------------------|-----0-----


1:26
G---------------------------|-----------------------|---------------------------
D---------4-----------------|-----------------------|---------------------------
A---------------------------|-----------------------|--2-----2--2-----2--2------
E------------2--2--2--2-----|--------3-----5-----5--|---------------------------



G------------------|--------------------------------------|---------------------
D------------------|--------------------------------------|---------------------
A------2--2--------|--------------------------------------|--5-----5--5---------
E------------5-----|--3-----3--3--2--3--5-----5--5-----5--|---------------------



G------------------------|--------------------------------------|---------------
D---4--------------------|--------------------------------------|---------------
A------------------------|--------------------------------------|--5-----5------
E------2-----2--2-----2--|--3-----3--3--2--3--5-----5--5-----5--|---------------



G------------|-------------------------|----------------------------------------
D------------|--5-----------5----------|----------------------------------------
A---4-----5--|------------------/12\---|--------------2--2--2--2--2--2--2-------
E------------|--------3----------------|--5-----5-------------------------------



G---|--------------------------------------|------------------------------------
D---|--------------------------------------|------------------------------------
A---|--2-----2--2-----2--2-----2--2--------|------------------------------------
E---|-----------------------------------5--|--3-----3--3--2--3--5-----0--2------



G------2--|--4-----------------------------------|------------------------------
D---4-----|--------------------------------------|--5-----------4---------------
A---------|--------2--2-----2--2-----2--2-----0--|------------------------------
E---------|--------------------------------------|-----3-----------2------------


1:49
G---|--------------------------|--------------------------|---------------------
D---|--2-----2-----5-----------|--5-----5-----------------|---------------------
A---|--------------------3-----|--------------5-----2-----|--3-----5------------
E---|--------------------------|--------------------------|---------------------



G------------|--------7-----------------|---------------------------------------
D---2--4-----|--5-----------------------|-----------2-----2--2--2--2--2---------
A------------|--------------5-----2-----|--3-----5------------------------------
E------------|--------------------------|--------------------------------0------



G------------------|--------------------------|--------------------------|------
D------------------|--5-----5-----8-----------|--8-----8-----------------|------
A------------------|--------------------6-----|--------------8-----5-----|------
E---0--0--0--0--0--|--------------------------|--------------------------|------



G---------------------------|--------10-----------------|-----------------------
D------------------5--7-----|--8------------------------|--------3--5-----5-----
A---6-----8-----------------|---------------8-----5-----|--6--------------------
E---------------------------|---------------------------|-----------------------



G---------------------------------|--------------------------------------|------
D---5--5--5--5--------------------|--------------------------------------|------
A---------------------------------|--------------------------------------|------
E---------------3--3--3--3--3--3--|--5-----5--5-----5--5-----5--5-----5--|------



G---------------------------------------|---------------------------------------
D---------------------------------------|---------------------------------------
A---------------------------------------|---------------------------------------
E---5-----5--5-----5--5-----5--5-----5--|--5-----5--5-----5--5-----5--5---------



G------|--------------------------------------|--------------------------|------
D------|--------------------------------------|--------------------5-----|------
A------|--------------------------------------|--7-----5-----7-----------|------
E---3--|--1-----1--1--3--1--0-----0--0-----0--|--------------------------|------



G---------------------------------------|--------------------------|------------
D---------------------------------------|--------------------5-----|------------
A---7-----7--7-----7--7-----7--7-----7--|--7-----5--------7--------|--7---------
E---------------------------------------|--------------------------|------------



G---------------------------------|--------------------------------------|------
D---------------------------------|--------------------------------------|------
A---7--7-----7--7-----7--7-----7--|--7-----7--7-----7--7-----7--7-----5--|------
E---------------------------------|--------------------------------------|------



G---------------------------------------|-------------------------|-------------
D---------------------------------------|-------------------------|-------------
A---3-----3--3--2--3--5--3--------2--5--|--7-----7--------7--7\---|--3--3-------
E---------------------------5--5--------|-------------------------|-------------


 2:34 
G------------------|-----------------------------|-----------------------7------
D------------------|-----------------------------|--5-----------5---------------
A------2--2--------|-----2--2--2-----2-----2-----|------------------------------
E------------------|--------------5--------------|-----3-----------3------------



G---9--|--11--------------7--7--9--11--11--9--7--|--11-----11--11--9--11--------
D------|---------7--7--9-------------------------|------------------------------
A------|-----------------------------------------|------------------------9-----
E------|-----------------------------------------|------------------------------



G----------------7--|--9-----9--9--7-------------------------|------------------
D------7--9--11-----|-----------------11--7-----7--7--9--11--|--12-----12-------
A-------------------|----------------------------------------|------------------
E-------------------|----------------------------------------|------------------



G------------------------------------|---------11--11--9-----2------------------
D---12--10--9-----------------9--12--|--12----------------12\---4--2--0--2------
A--------------10--9--10--10---------|------------------------------------------
E------------------------------------|------------------------------------------


2:50
G------|--------------------------------||---------------------|----------------
D---4--|--2-----------4-----------------||*--------------------|----------------
A------|--------------------------------||*--------------------|--2-----2--2----
E------|-----0-----------2--2--2--2-----||------3-----5-----5--|----------------



G---------------------------|--------------------------------------|------------
D---------------------------|--------------------------------------|------------
A------2--2-----2--2--------|--------------------------------------|--5---------
E---------------------5-----|--3-----3--3--2--3--5-----5--5-----5--|------------



G---------------------------------|--------------------------------------|------
D------------4--------------------|--------------------------------------|------
A---5--5--------------------------|--------------------------------------|------
E---------------2-----2--2-----2--|--3-----3--3--2--3--5-----5--5-----5--|------



G---------------------|-------------------------|-------------------------------
D---------------------|--5-----------5----------|-------------------------------
A---5-----5--4-----5--|------------------/12\---|--------------2--2--2--2--2----
E---------------------|--------3----------------|--5-----5----------------------


 Repeat and Fade
G------|------------------------||----------------------------------------------
D------|-----------------------*||----------------------------------------------
A---2--|--2--2--2--2--2--2-----*||----------------------------------------------
E------|------------------------||----------------------------------------------
  development and support by
dmitry ivanov