rock
 
|tablatures   |lyrics   |discussion forums   |more tabs @ XGuitar.com

Jethro Tull tabs

Hymn 43 guitar tab

HYMN 43 

D5   D/C       A5      G5 
Oh father high in heaven 
D5    D/C               G 
  smile down upon your son.  Yeah! 
D5      D/C          B5    Bb     A5                    G5 
  Whose busy with his money games Oh! his women and his gun. 
  

Oh Jesus save me! 
            E|----------------- 
            B|----------------- 
            G|----------------- Play 4x 
            D|----------3-5---- 
            A|-5-5-530--------- 
            E|----------------- 
  

D5   D/C       A5      G5 
And the unsung Western hero 
D5    D/C               G 
killed an Indian or three.  Yeah! 
D5      D/C          B5    Bb     A5                    G5 
And then he made his name in Hollywood    to set the white man free. 
Oh Jesus save me! 
            E|----------------- 
            B|----------------- 
            G|----------------- Play 4x 
            D|----------3-5---- 
            A|-5-5-530--------- 
            E|----------------- 

    D5      D/C                  B5          N.C(RIFF) 
If Jesus saves -- well, He'd better save Himself 
E|----------------- 
B|---6p5----5------ 
G|-------7----7_--- 
D|----------------- 
A|----------------- 
E|----------------- 
           D5      D/C             B5          N.C(RIFF) 
from the gory glory seekers who use His name in death. 

              A5    G5                  D5 
     Oooh! Oooh! Oooh! Oooh! Oh Jesus save me! 

Solo:   D5   D/C       A5      G5 
        D5   D/C      G5 
        D5   D/C      B5       Bb5     A5            G5 

rest the same 
  

Words and music by  IAN ANDERSON 

TRANSCRIPTION BY PACO JIMENEZ (SPAIN) 
ALL CORRECTIONS ARE WELCOME 
ARCHIVEL@teleline.es
  development and support by
dmitry ivanov