rock
 
|tablatures   |lyrics   |discussion forums   |more tabs @ XGuitar.com

Jethro Tull tabs

Hymn 43 bass tab

Hymn 43- Jethro Tull
TABBED by hawkhuff
This is a tune off the Aqualung Album.

Verse:
G---------------------------|--------------------------|
D---------------------------|--------------------------|
A---77--55---------55-------|--77---55---------5-7-----|
E---------77--77777---------|----------55555-7---------|

G------------------------------------------------------|
D------------------------------------------------------|
A---77--55-44-33-222222--0000000-----------------------|
E------------------------------------------------------|

Chorus(?) Bridge1:
G-------------------------|
D----------5-7------------|
A---777-5-----------------|
E--------7----------------|

 Main Bridge2:
(After this then go back to the chorus then to last verse)
G--------------------|-------------------------|---------------|
D-----------7-5--5---|------------7-5--5-------|---------------|
A--77--55------7---7-|---77--55-------7--7-----|-222222--00000-|
E--------77----------|----------55-------------|---------------|

Any questions Hawkhuff@msn.com
  development and support by
dmitry ivanov