rock
 
|tablatures   |lyrics   |discussion forums   |more tabs @ XGuitar.com

Jethro Tull tabs

First Post guitar chords

First Post (Nightcap) - Ian Anderson 
Guitar part 
CAPO 3 - frets numbered from capo 
Digital delay 
Tempo varies throughout 

Fmaj    g------0-4-0--     -----0-5-0--    -----0-4-0--     -----0-3-0-- 
        D----0-------0     ---0-------0    ---0-------0     ---0-------0 
        Bb-4---------- X4  -5---------- X4 -4---------- X2  -5---------- X2 
        F-------------     ------------    ------------     ------------ 
        C-------------     ------------    ------------     ------------ 
        G-------------     ------------    ------------     ------------ 

g------0-2-0--     -----0-2-0-------0-2-0------------------------------------------- 
D----0-------0     ---0-------0---0-------------0--0-------------------------------- 
Bb-4---------- X2  -3-----------2---------2-/s-4--4---2-0-0-2^4-2^4---2-0-0-2^4-2^4- 
F-------------     --------------------------------------4------3--------4---------- 
C-------------     ----------------------------------------------------------------- 
G-------------     ----------------------------------------------------------------- 

g---------------------------------------   -----------    -----------    ------------- 
D---------------0-----------------------   -----------    -----------    -----------0- 
Bb--2-0-0-2^4---4---2-0-0-2-0-----------   -----------    -----------    -----------0- 
F------4--------x-------------4-2-0---2-   ---2------- X4 ---0-0^2-4- X2 ---2-------4- 
C---------------3-----------------------   -2---2^4--5    -2---------    -2---2^4-5-x- 
G-----------------------------------0---   -0---0-----    -0---------    -0---0-----3- 
  

g------------    -----------    --------------------------------2- 
D------------    -----------    ------------0-------------------2- 
Bb---2-------    ---0-0^2-4-    ---2-----0--4--2-0-2-0----------3- 
F--2---2^4-5- X3 -2--------- X2 -2---2^4----2-----4---4-2-0--4--4- 
C--0---0-----    -0---------    -0---0------0--------------3-4--4- 
G------------    -----------    --------------------------------2- 

Transcribed by John Fahey 
goog64@yahoo.com 
All corrections welcomed!
  development and support by
dmitry ivanov