rock
 
|tablatures   |lyrics   |discussion forums   |more tabs @ XGuitar.com

Jethro Tull tabs

Cheap Day Return guitar tab

Cheap Day Return 
capo 7 
intro........ 

C              D7 
On Preston platform 
G                   G/F#      Em 
do your soft shoe shuffle dance. 
C                   D7 
Brush away the cigarette ash that's 
G                  A7 
falling down your pants. 
C              D7 
And you sadly wonder 
         G       G/F#      Em 
does the nurse treat your old man 
              D 
the way she should. 
   C 
She made you tea, 
                       G 
asked for your autograph -- 
       Em 
what a laugh.         D Sus2    A sus2 
  
  

Capo 7th fret and ignore the notes on the left. 

Intro: 

   Em-----------------------------| ?-----------------------------| 
E|-0-0-0---0-0---0-0---0-0---0-0----0-----0-----0-----0-----0---------- 
B|-0-----0-----0-----0-----0-----0--3-3-----3-----3-----3-----3-------- 
G|-0--------------------------------4---4-----4-----4-----4-----4------ 
D|-2--------------------------------0---------------------------------- 
A|-2--------------------------------0---------------------------------- 
E|-0------------------------------------------------------------------- 
  

   Em-----------------------------| ?-----------------------------| 
E|-0-0-0---0-0---0-0---0-0---0-0----0-----0-----0-----0-----0---------- 
B|-0-----0-----0-----0-----0-----0--3-3-----3-----3-----3-----3-------- 
G|-0--------------------------------4---4-----4-----4-----4-----4------ 
D|-2--------------------------------0---------------------------------- 
A|-2--------------------------------0---------------------------------- 
E|-0------------------------------------------------------------------- 
  

  

 3 strums each | 1strum | 3 strums   | 1 strum | 
  Em    E      | E  E7  | each       | each    | 
E|-0--0--0--0-----0--0----0--0--0--0---0--0--0-------------------- 
B|-0--0--0--0-----0--3----0--0--0--0---0--3--0-------------------- 
G|-0--2--1--2-----1--1----0--2--1--2---1--1--0-------------------- 
D|-2--2--2--2-----2--2----2--2--2--2---2--2--2-------------------- 
A|-2--2--2--2-----2--2----2--2--2--2---2--2--2------------------- 
E|-0--0--0--0-----0--0----0--0--0--0---0--0--0-------------------- 
  

E|--------------------------------------------------------------------- 
B|--------------------------------------------------------------------- 
G|----------0--0---0---0---0------------0-0---0---0-0-0---------------- 
D|------0-2----4-2-4-2-4-2-4--------0-2---4-2-4-2-4-2-4---------------- 
A|--2-3-------------------------2-3------------------------------------ 
E|--------------------------------------------------------------------- 

                                           Em--------------- 
E|-------------------------------------------------0------------------- 
B|---------------------------------------------0-0---0----------------- 
G|----------0-0---0---0---0--------2-0---------0-------2-0-0----------- 
D|------0-2---0---0---0---0----2-4-----4-------2-------------4-2-0----- 
A|--2-3---------0---0---0------------------2-2-2----------------------- 
E|-----------------------------------------0-0-0----------------------- 
  

  

  On Preston platform do your soft shoe shuffle dance 

    C---------|  D-------------|  G          Em(4strums) 
E|--------------------------------------------------------------------- 
B|-------5-5-5-------3-----------------------0------------------------- 
G|-------5-5-5---2-2----------0--------------0------------------------- 
D|--5--5-5-5-5---0----------0----0---0-----0-2-----0--7h8r7---0-------- 
A|--3--3-3-3-3---0------0h2------2-2---0-0---2-----0--------7---------- 
E|-------------------------------3-----2-----0------------------------- 

Brush away the cig'rette ash that falling down your pant 
Same as above C through   G         | 
   C            D                 G |        A 
E|------------------------------------------------------5b6r5-3-------- 
B|-------------------------------------------2-2-2-0-2----------5-0---- 
G|-------------------------------------------2-2-2-0-2----------------- 
D|-------------------------------------------2-2-2-0-2----------------- 
A|-------------------------------------------0-0-0-0-0----------------- 
E|--------------------------------------------------------------------- 

And you sadly wonder, does the nurse treat your old man the way she should? 
Repeat again  same through G| 
   C         D         G    |     Em          D 
E|--------------------------------------------2-2-2-0-2------------------ 
B|--------------------------------------------3-3-3-3-3------------------ 
G|---------------------------------0-0-0-0-0--2-2-2-0-2-4p2p0-2-2p0-2-2-0 
D|---------------------------------2-2-2-2-2----------------------------- 
A|---------------------------------2-2-2-2-2----------------------------- 
E|---------------------------------0-0-0-0-0----------------------------- 
  

She made you tea, asked for your autograph.  What a laugh. 

    C                   G    Em        D 
E|----------------------1--------------2-2-2-0-2----------------------- 
B|--1-1-0---------------0--0-----------3-3-3-3-3--0-----0-0---0-------- 
G|--0-----2-0--0-2-0----0--0-0-0-0-0-0-2-2-2-0-2--4p2p0-2-2p0-2-2-0---- 
D|--2----------------3--0--0-2-2-2-2-0-0-0-0-0-0----------------------- 
A|--3-------------------2--0-2-2-2-2-0--------------------------------- 
E|----------------------3--2-0-0-0-0-0--------------------------------- 
  

    Esus                          D 
E|-0-0-0-0-0----------------------2-2-2-0-2---------------------------- 
B|-0-0-0-0-0----------------------3-3-3-3-3---------------------------- 
G|-2-2-2-0-2--0-----0-0---0-------2-2-2-0-2---------0---0-------------- 
D|-2-2-2-0-2--4p2p0-2-2p0-2-2-0---0-0-0-0-0---------0h2-0-0h2---------- 
A|-0-0-0-0-0----------------------------------0-0h2-------------------- 
E|------------------------------------------3-------------------------- 

       Esus     Em       Bm       Em       Bm       Em 
E|--------------0--0-0---2--2-2---0--0-0---2--2-2---0-------------- 
B|---0-0-0-0-0--0--0-0-0-3--3-3-0-0--0-0---3--3-3-0-0-------------- 
G|---2-2-2-0-2--0--0-0-0-4--4-4-0-0--0-0-0-4--4-4-0-0-------------- 
D|---2-2-2-0-2--2--2-2-0-4--4-4-0-2--2-2-0-4--4-4-0-2-------------- 
A|---0-0-0-0-0--2--2-2-0-2--2-2-0-2--2-2-0-2--2-2-0-2-------------- 
E|--------------0--0-0------------0--0-0------------0-------------
  development and support by
dmitry ivanov