rock
 
|tablatures   |lyrics   |discussion forums   |more tabs @ XGuitar.com

Jethro Tull tabs

Cheap Day Return bass tab

Cheap Day Return
Jethro Tull
Transcribed by Justin Benz


0:00
G---|--------------|--------------|--------------|--------------|---------------
D---|--------------|--------------|--------------|--------------|---------------
A---|--2-----------|--------------|--2-----------|--------------|--2------------
E---|--------------|--5-----------|--------------|--5-----------|-----3--2------



G------------|--------------------|--------------|------------------------------
D------------|--------------------|--------------|------------------------------
A------2-----|--2-----------2-----|--2-----------|--4-----2--4-----2--4---------
E---3-----3--|-----3--2--3-----3--|--------------|------------------------------



G------------|-----------------------------------|------------------------------
D------------|-----------------------------------|--7--------7--------7---------
A---2--4-----|--4-----2--4-----2--4-----2--4-----|--------7--------7------------
E------------|-----------------------------------|------------------------------


 0:34 
G------------|-----------------|--------------------------|---------------------
D------7-----|-----------------|--------------------------|---------------------
A---7--------|-----------2-----|--------------------------|--5-----4-----2------
E------------|--------------5--|--3-----3-----5-----5-----|---------------------



G---------|--------------------------|-----------------------|------------------
D---------|--5-----5-----7-----7-----|-----------------------|------------------
A---------|--------------------------|--5-----5-----7--------|------------------
E---------|--------------------------|-----------------------|-----3--3---------



G---------------------|-----------------------|---------------------------------
D---------------------|-----------------------|---------------------------------
A---------------------|--5-----4-----2--------|---------------------------------
E---3--3--5--5--5--5--|-----------------------|--5--5--5--3--5-----5-----5------



G------|-----------------|-----------------|------------------------------------
D------|-----------------|-----------------|------------------------------------
A------|-----------------|--5--------2-----|------------------------------------
E------|--3--------3-----|-----------------|--5--5--5--3--5-----3--5--5--5------



G--------------|--------------------------|-------------------------------------
D--------------|--------------------------|-------------------------------------
A--------------|--------------------4-----|-------------------------------------
E------3--5--5/|--7--7--7--5--7-----------|--5--5--5--3--5-----3--5--5--5-------



G-----------|--------------------|-----------------|-----------------|----------
D-----------|--------------------|-----------------|-----------------|----------
A-----------|--------------------|--4--------------|--4--------------|--4-------
E---3--5--5/|--7--7--7--5--7-----|-----------7-----|-----------7-----|----------



G------------||-----------------------------------------------------------------
D------------||-----------------------------------------------------------------
A------------||-----------------------------------------------------------------
E------------||-----------------------------------------------------------------
  development and support by
dmitry ivanov