rock
 
|tablatures   |lyrics   |discussion forums   |more tabs @ XGuitar.com

Jethro Tull tabs

Aeroplane bass tab

 Aeroplane
Jethro Tull
 Transcribed by Paul Sipio


Drums 0:042x
G---|-----------------||-----------12---------10------||------------------------
D---|-----------------||*--10--10---------10---------*||--10--8-----------------
A---|-----------------||*----------------------------*||------------10----------
E---|-----------------||------------------------------||------------------------


 2x 
G---|----------------------||-----------12---------10------||-------------------
D---|----------------------||*--10--10---------10---------*||--10--8------------
A---|--10------------------||*----------------------------*||------------10-----
E---|------11-----8--------||------------------------------||-------------------


 2x 
G---------|----------------------||-----------12---------10------||-------------
D---------|----------------------||*--10--10---------10---------*||--10--8------
A---------|--10------------------||*----------------------------*||-------------
E---------|------11-----8--------||------------------------------||-------------


0:38
G----------------|----------------------|-----------------------------|---------
D----------------|----------------------|-----------------------------|---------
A------10--------|--10------------------|--8-----8-----8--------6-----|--8------
E----------------|------11-----8--------|-----------------8--8-----8--|---------



G---------------------------|----------------------|------------------|---------
D---------------------------|-------------8--------|------------------|---------
A---8--8-----8--------8--9--|--10-----10--------8--|--10--------------|---------
E---------------8--8--------|----------------------|------------------|---------


 0:52 
G-------------------|------------------|------------------------------|---------
D----------8--------|------------------|------------------------------|---------
A------10--------8--|--10--------------|-----10-----10-----10-----10--|--6------
E-------------------|------------------|--8------8------8------8------|---------


 2x 
G------------------------||-----------12---------10------||---------------------
D---8-----8-----8-----8--||*--10--10---------10---------*||--10--8--------------
A------6-----6-----6-----||*----------------------------*||------------10-------
E------------------------||------------------------------||---------------------


 Harpsichord Solo 

G------|-------------------------|---------8-----10-----10--10p8------|---------
D------|-------------------------|--10----------------------------10--|--10-----
A------|--10---------------------|------------------------------------|---------
E------|------11-----8--8--------|------------------------------------|---------



G-------8------10-----10p8------|------------------------------|----------------
D---10-----10---------------10--|--10-----8----------------10--|--8-----8-------
A-------------------------------|------------10--8-----11------|----------------
E-------------------------------|------------------------------|----------------


1:22
G---8--------8--|-------------------|-------------------||-----------12---------
D---------8-----|--10--10-----------|--10--10-----------||*--10--10-------------
A---------------|-------------------|-------------------||*---------------------
E---------------|-------------------|-------------------||----------------------


2x
G-------10------||----------------------|----------------------|----------------
D---10---------*||--10--8---------------|----------------------|----------------
A--------------*||------------10--------|--10------------------|--8-----8-------
E---------------||----------------------|------11-----8--------|----------------



G------------------|-----------------------------|----------------------|-------
D------------------|-----------------------------|-------------8--------|-------
A---8--------6-----|--8-----8-----8--------8--9--|--10-----10--------8--|-------
E------8--8--------|-----------------8--8--------|----------------------|-------



G-------------------|---------------------|------------------|------------------
D-------------------|------------8--------|------------------|------------------
A---10--------------|--------10--------8--|--10--------------|-----10-----10----
E-------------------|---------------------|------------------|--8------8--------


 7x
G-----------------|--------------------------||-----------12---------10--||
D-----------------|-----8-----8-----8--------||*--10--10---------10-----*||
A------10-----10--|--6-----6-----6-----6-----||*------------------------*||
E---8------8------|--------------------------||--------------------------||
  development and support by
dmitry ivanov