rock
 
|tablatures   |lyrics   |discussion forums   |more tabs @ XGuitar.com

Jethro Tull tabs

Acres Wild bass tab

Artist/Band: Jethro Tull
Song: Acres Wild
Album: Heavy Horses (Copyright c1978)
E-Mail: LeD ZePPeLiN 054 @ aol.com


Intro 

 whhqeeeeqhh
G---|--------R--------|-R-----------------|-----------------------|-R-------------
D-4:|--------E--------|-E-----------------|-----------------------|-S-------------
A-4:|--------S--------|-S--------0--------|-2----2--0-----0--0----|-E--------0----
E---|--------T--------|-T-----------------|------------3----------|-T-------------

TIE
 qeeqee=====h heeeeeeqh
G----|-----------------------|---------------------|------------------------|-R---
D----|-----------------------|---------------------|------------------------|-E---
A----|-0----4--0--2----2--2--|-(2)--------0--------|-0--2--0--------0--2----|-S---
E----|-----------------------|---------------------|----------3--3----------|-T---

 TIE
hqqqq=======h heeeeeeq
G--------------|---------------------|---------------------|----------------------
D--------------|---------------------|---------------------|----------------------
A-----0--------|------2---------0----|-(0)--------0--------|-0--2--0--------0--2--
E--------------|-3---------3---------|---------------------|----------3--3--------

TIE 
 hhqeeqee=====h heeee
G--|-R-----------------|-----------------------|---------------------|------------
D--|-E-----------------|-----------------------|---------------------|------------
A--|-S--------0--------|-0----4--0--2----2--2--|-(2)--------0--------|-0--2--0----
E--|-T-----------------|-----------------------|---------------------|----------3-


eeqhhqqqq 
G------------|-R-----------------|---------------------||
D------------|-E-----------------|---------------------||
A----0--2----|-S--------0--------|------2---------0----||
E-3----------|-T-----------------|-3---------3---------||

Pre-Verse

|------3------|
 weeeeeeeehheeee
G---|--------R--------|-------------------------|----------2--------|------------
D-4:|--------E--------|-------------------------|-------------------|------------
A-4:|--------S--------|-2--3--2-----3--2--2-----|-0-----------------|-0--2--0----
E---|--------T--------|----------3-----------3--|-------------------|----------3-


eeeehheeeeeeee
G-------------|----------2--------|-------------------------||
D-------------|-------------------|-------------------------||
A-------2-----|-0-----------------|-2--3--2-----3--2--2-----||
E-3--3-----3--|-------------------|----------3-----------3--||
 Bass Fill 1 substitutes
 3rd time

Verse

|------2------| TIE 
 weQQq=======h qqh
G---|--------R--------||--R---------------------|------------2---------|---------
D-4:|--------E--------||*-E--0------------------|----------------------|---------
A-4:|--------S--------||*-S---------3------2----|-(2)------------------|-0-------
E---|--------T--------||--T---------------------|-----------------0----|---------
 Bass Fill 2 subs. 
 3rd Verse
7x 1st Verse
eeeeqqh 3x 2nd and 3rd Verses 
G-------------|---------------------||
D----2--0--2--|-3---------3--------*||
A-0-----------|------3-------------*||
E-------------|---------------------||




Chorus

TIE TIE
eQQq=======h Qeqq=====Q eq
G---|-R---------------------|------------2---------|-----------------------|----
D-4:|-E--0------------------|----------------------|-3----3----(3)---------|-3--
A-4:|-S---------3------2----|-(2)---------------3--|--------------------3--|----
E---|-T---------------------|----------------------|-----------------------|----

 TIE TIE
 qeeqH=============e eqHqq=====q
G------------------|----------------------|-------------------|-----------------
D--3---------------|----------------------|-------------------|-3----3----(3)---
A------------------|-3------------(3)-----|-3----3------------|-----------------
E-------1--3--1----|-------------------3--|-------------------|----------------- 


eqqeeqhheeeeeeeeq
G------|----------------------|----------2--------|-------------------------|---
D------|-3----3---------------|-------------------|-------------------------|-3-
A---3--|----------------------|-0-----------------|-0--2--0-----------2-----|---
E------|-----------1--3--1----|-------------------|----------3--3--3-----3--|---

TIE TIE
q=====Q eqqeeqH=========e eqhe
G--------------------|----------------------|------------------|----------------
D---3----(3)---------|-3----3---------------|------------------|---------------0
A-----------------3--|----------------------|-3--------(3)-----|-3----3---------
E--------------------|-----------1--3--1----|---------------3--|----------------

TIETIE
 eqhq======wHq==========H
G-----|---------------0----|-0----------------|-------------------|-------------
D--2--|-3----3-------------|------------------|-2------------0----|-6:-(0)------
A-----|--------------------|------------------|-------------------|-4:----------
E-----|--------------------|------------------|-------------------|-------------

TIE
q=====H
G-------------R--------||
D------(0)----E--------||
A-------------S--------||
E-------------T--------||



Outro


eeeeeeqhh
G---|-R--0--------0----------|-R-----------------|
D-4:|-E-----4--0-----4--0----|-E-----------------|
A-4:|-S----------------------|-S--------0--------|
E---|-T----------------------|-T-----------------|



Bass Fill 1 

eeeeeeqqq
G---|----------------------------------|
D-6:|------------------------0----0----|
A-4:|-2--3--2-----3--2--2--------------|
E---|----------3-----------------------|


Bass Fill 2

heeeeqqh
G---|----------------------|--------------------|
D-4:|-------------2--0--2--|-3---------3--------|
A-4:|-0--------0-----------|------3-------------|
E---|----------------------|--------------------|
  development and support by
dmitry ivanov