rock
 
|tablatures   |lyrics   |discussion forums   |more tabs @ XGuitar.com

Jethro Tull tabs

A Song For Jeffrey bass tab

A Song For Jeffery
 Jethro Tull
Transcribed by Paul Sipio

9x 3x
G---||----------------------||-------------5--3-0--||-------5-5-3------
D---||*-5/7--7-7-----7-5-3-*||*-----5---5---------*||*------------5----
A---||*--------------------*||*-------------------*||*-----------------
E---||----------------------||--3-3---3------------||--3--3----------3-

 
G----5-3----------5-5-3--------------||--------------------------------
D--------5-5--------------5---------*||--------------------------------
A-----------------------------------*||--------------------------------
E-3----------3--3-------1---2--3--3--||-13-13-15-15-13-13-15-15-13-13--


G--------------|--------------------------------------------------|----
D--------------|------------------------5--5-5---5--5-5---5-------|----
A--------------|-3--3-3---3--3-3-1--1-1---------------------------|-3--
E-15/3-3-3-3-3-|---------------------------------------------3--3-|----


G-------------------------------------------------||-------------------
D---------------------5--5-5---5--5-5---5---------||*----------------3-
A-3-3---3--3-3-1--1-1---------------------------5-||*-5--5-5--5-5--5---
E------------------------------------------3--3---||-------------------

 3x 3x
G----||-------------5--3-0--||-------5-5-3---------5-3----------5-5-3--
D---*||*-----5---5---------*||*------------5-----------5-5-------------
A-3-*||*-------------------*||*----------------------------------------
E----||--3-3---3------------||--3--3----------3--3---------3--3--------


G--------------||--------------------------------------------||--------
D---5---------*||--------------------------------------------||*-----5-
A-------------*||--------------------------------------------||*-------
E-1---2--3--3--||-13-13-15-15-13-13-15-15-13-13-15/3-3-3-3-3-||--3--3--

9x
G-----5--3-0--||------------------||--------------|--------------------
D---5--------*||*-5/7--7-7-7-5-3-*||-----5---5----|--------------------
A------------*||*----------------*||--------------|--------------------
E-3-----------||------------------||-6-6---6----x-|--------------------
  development and support by
dmitry ivanov