rock
 
|tablatures   |lyrics   |discussion forums   |more tabs @ XGuitar.com

Jethro Tull tabs

A New Day Yesterday bass tab

Jethro Tull - A New Day Yesterday

Tabbed by BENDA
wacka_smacka@hotmail.com


Riff 1
|-----------------------------------------|
|-----------------------------------------|
|-----------------------------------------|
|---------------------------------5------|
|---------5-6-7---7--7--5--------------|
|--5-6-7--------------------7-----------|

riff 2
|-----------------------------------------|
|-----------------------------------------|
|-----------------------------------------|
|---------------------------------5-------|
|--3-2-0-2----7---7-7-5-------------|
|------------3---------------7-----------|


chorus

|-------------------------------------------------------------------------------------------------------|
|-7---7---7-5----------5----------------5----------------9----4-5---5---7---7-----------5--------|
|-------5--------7---7----7---5-3---3-------3-5-7---7----7-----------5-------7-3---3-----3-5-|
|-------------------------------------------------------------------------------------------------------|






  development and support by
dmitry ivanov