rock
 
|tablatures   |lyrics   |discussion forums   |more tabs @ XGuitar.com

Jack Johnson tabs

Wasting Time bass tab

Song: Jack Johnson - Wasting Time
Intrument: Bass
Tabber: Ryan Dewsbury

Intro:(x1)
G|---------------------------------------|
D|--------7-7---7----------7-7---7-------|
A|--5--5------9---9--7--7------9---9-----|
E|---------------------------------------|

Chorus:(x2)
G|---------------------------------------|
D|--------7-7--7----------7-7--7---------|
A|--5--5---------9--7--7---------9-------|
E|---------------------------------------|

Verse:(x5)
G|-------------------------------------|
D|-------------------------------------|
A|--5--5--------7--7-------------------|
E|--------5--5--------5--5-------------|

Chorus(x2)

Verse(x5) including verse variation on 4th and 5th repeat

Verse Variation:
G|-------------------------------------|
D|-------------------------------------|
A|--5--5--------7~---------------------|
E|--------5--5--------5--5-------------|

Interlude:(x2)
G|---------------------------------------|
D|--5~--4-5-5---7~----7-7----------------|
A|------------------9--------------------|
E|---------------------------------------|

Chorus(x2)

Solo (Play Chorus Riff x2)

Verse(x5) No variation

Interlude(x2)

Chorus till end of song.

That's it! Good luck, Ryan.
  development and support by
dmitry ivanov