rock
 
|tablatures   |lyrics   |discussion forums   |more tabs @ XGuitar.com

Jack Johnson tabs

Traffic in the Sky guitar tab

Jack Johnson
Traffic In The Sky

Intro & Verse:

 D              F#m7               C              Em7
-----------------------------------------------------------------
---7-----7--------10------10---------5-----5--------8-----8------
-----7-----7---------9-------9---------5-----5--------7-----7----  x4
-------7-----7---------11------11--------5-----5--------9-----9--
-5--------------9------------------3--------------7--------------
-----------------------------------------------------------------
 there's..      sky..               seem..         better..

Chorus:

 A              A       G#      G             A
-------------------------------------------------------------
-------------------------------------------------------------
---6-----6--------6-------5------4-----4--------6-----6------
-----7-----7--------7-------6------5-----5--------7-----7----
-------7-----7--------7-------6------5-----5--------7-----7--
-5--------------5-------4-------3-------------5--------------
 say..                                        known..

 D              Bm             G              A		
-------------------------------------------------------------
---7-----7--------3-----3------------------------------------
-----7-----7--------4-----4------4-----4--------6-----6------
-------7-----7--------4-----4------5-----5--------7-----7----
-5--------------2--------------------5-----5--------7-----7--
-------------------------------3--------------5--------------
 really..       tell..         na..           stones..

 D              Bm             G              A		
-------------------------------------------------------------
---7-----7--------3-----3------------------------------------
-----7-----7--------4-----4------4-----4--------6-----6------
-------7-----7--------4-----4------5-----5--------7-----7----
-5--------------2--------------------5-----5--------7-----7--
-------------------------------3--------------5--------------
 will..         well..         mmm..	

Ending: D

there's traffic in the sky
and it doesn't seem to be getting much better
there's kids playing games on the pavement
drawing waves on the pavement, mmm hmm
shadows of the planes on the pavement, mmm hmm
it's enough to make me cry
but that don't seem like it would make it feel better
maybe it's a dream and if i scream
it will burst at the seams
whole place would fall to pieces
and then they'd say
well how could we have known
i'll tell them it's not so hard to tell, na na na
you keep adding stones
soon the water will be lost in the well, mmm hmm
and puzzle pieces in the ground
no one ever seems to be digging
instead they're looking up towards the heavens
with their eyes on the heavens, mmm hmm
the shadows on the way to the heavens, mmm hmm
it's enough to make me cry
that don't seem like it would make it feel better
the answers could be found
we could learn from digging down
but no one ever seems to be digging
instead they'll say
well how could we have known
i'll tell them it's not so hard to tell, na na na
you keep adding stones
soon the water will be lost in the well, mmm hmm
and words of wisdom all around
but no one ever seems to listen
they're talking about the plans on the paper
building up from the pavement, mmm hmm
the shadows from the scrapers on the pavement, mmm hmm
it's enough to make me sigh
but that don't seem like it would make it feel better
the words are all around
but the words are only sounds
and no one ever seems to listen
instead they'll say
well how could we have known
i'll tell them it's really not so hard to tell
you keep adding stones
soon the water will be lost in the well, lost in the well
mmm mmm mmm mmm
  development and support by
dmitry ivanov