rock
 
|tablatures   |lyrics   |discussion forums   |more tabs @ XGuitar.com

Jack Johnson tabs

Traffic in the Sky bass tab

Hey everybody here is the bass tab for Jack Johnson's Traffic in the sky. Brought to you by the
one and only hiphopguitarist. Have fun and enjoy!!

Intro/Verse

G|-------------------------------------------|
D|-----------7------5------5---------4-------|
A|---2//5-------9-----3-------7--------------|      x1
E|-------------------------------------------|

G|-------------------------------------------|
D|-----------7------5------5---------4-------|
A|------5-------9-----3-------7--------------|      x??
E|-------------------------------------------|

Bridge

G|---------------------------------------------|
D|---------------------------------------------|
A|---------------------------------------------|
E|-----------5~--4~---3~---5~------------------|


Chorus

G|---------------------------------------------|
D|---------------------------------------------|
A|-------5~-----2~-----------------------------|
E|-----------------------3~--------5~----------|

There ya go ladies and gents. Easy enough wasn't it.
  development and support by
dmitry ivanov