rock
 
|tablatures   |lyrics   |discussion forums   |more tabs @ XGuitar.com

Jack Johnson tabs

Tomorrow Morning guitar tab

Tomorrow Morning by Jack Johnson
Tabbed by Sam Trowbridge
For accoustic guitar- standard tuning...
A really wicked song by Jack Johnson.. its pretty easy- hope this tab helps.. took me a while to get this!

Intro:

e-------------2------------0------------------3-------------2---------------
B-------------3------------2------------------3-------------3---------------
G-------------2------2-----2------------------4-------------2---------------
D-------0-0---0-0h4--------2----4h2-0---------5---------0---0---------------
A--0h2--------x------------0----------2p0-----5----0h2------x---------------
E-------------x------------x----------------2/3-3-----------x---------------

Now start singing
e-------------2-----------0-------------------------------
B-------------3-----------2-------------------------------
G-------------2-------2---2-------------------------------
D-------0-0---0--0h4------2-------------------------------
A-0h2---------x-----------0-9-7-5-5-2-5-2-9-5-5-----------
E-------------x-----------x-------------------------------
Well thats alright
well thats alright
2000miles but still
thats all right

e------------2---------- 0----------------------------------
B------------3-----------2----------------------------------
G------------2-------2---2----------------------------------
D------0-0---0--0h4------2--0-------------------------------
A-0h2--------x-----------0----9-7-5--2-5--2--5-2-9-5-5------
E------------x-----------x----------------------------------

And thats alright
If thats alright
I'll see you in the morn
if thats alright

D                        F#m
What would you do if I wrote you a song
           Em                       A
Would you give me some lovin', when I get home
          D                 F#m
Would you be mad at me if I had a hard time
           Em             G (let ring!)
Getting a hold of you- I try all the time

D            F#m   Em                  A                D      F#m    Em
And I think that...    You dont know anybody that could be     so bad
             A                     D            F#m
but if you did you'd be wandering where     I'm at
         Em                A
We'll I'll be home when tomorrow morning comes

Play these chords while another guitar is playing: D, F#m, Em, A. x2

D                       F#m
What would you do if I sang you this song
     Em                          A
The connection is bad but thats only the phone
               D                     F#m
Cause when my words kiss your ear   I'll be right there
   Em                          G (Let ring!)
The message is long  but baby this is your song

    D      F#m    Em                A                 D      F#m Em
And I bet that...    You dont know anybody that could be  so bad
            A                      D            F#m
but if you did you'd be wandering where     I'm at
      Em                   A
We'll I'll be home when tomorrow morning comes
x2

Play these chords while another guitar is playing: D, F#m, Em, A. x2

D                              F#m
And thats alright       Cause I'll be home when tomorrow morning...
Em                               A
And thats alllllright     Cause I'll be home when tomorrow morning comes
  development and support by
dmitry ivanov