rock
 
|tablatures   |lyrics   |discussion forums   |more tabs @ XGuitar.com

Jack Johnson tabs

Staple It Together guitar tab

Jack Johnson - Staple It Together
Album: In Between Dreams
c/o: Joe V.

Intro Chords

    A	     D
E---5--------5---
B---5--------7---
G---6--------7---
D---7------------
					
During the chorus:
A D G C	With fills in Am like

E----------------------
B----------------------
G-------5--7b9r7p5-----
D---s7--------------7--
A----------------------
E----------------------


The lead in this song is all out of a Am Pentatonic
scale.  Jack's using it in this position:

E----------------------------------------5--8-
B----------------------------------5--8-------
G----------------------------5--7-------------
D----------------------5--7-------------------
A------------3--5--7--------------------------
E---3--5--8-----------------------------------

or, if you're an overachiever, take it to the next level:
(Jack doesn't go this far on the album version at least,
it's only a 3:16 second song!)

E---------------------------------------8--10--
B--------------------------------8--10---------
G--------------------------7--9----------------
D-----------------5--7--9----------------------
A--------3--5--7-------------------------------
E--3--5----------------------------------------

		Bassline
G----------------------------------------
D----------------------------------------
A----------------5--------------------3--
E---5-5-5-5---8-----------3-3-3-3--6-----

Then during the Chorus

G----------------------------------------
D----------------------------------------
A-------------7---5-----------------5--3-
E---5-5-5-5---------------3-3-3-3--------

Super simple song to groove out to
  development and support by
dmitry ivanov