rock
 
|tablatures   |lyrics   |discussion forums   |more tabs @ XGuitar.com

Jack Johnson tabs

Sitting, Waiting, Wishing bass tab

Verse:
G|---------------|--------------|--------------|---------------|
D|---------------|--------------|--------------|---------------|
A|---------------|--------------|--------------|-2-3-3--2-3-3-5|
E|--4-5-5--4-5-5-|-2-3-3--2-3-3-|-0-1-1--0-1-1-|---------------|

Chorus:
G|---------------|--------------|--------------|---------------|
D|---------------|--------------|--------------|---------------|
A|---------------|--------------|--------------|---------------|
E|--1-0-0--1-0-0-|-1-0-0--1-0-0-|-4-5-5--4-5-5-|-4-5-5--4-5-5--|

Brigde:
G|---------------|--------------|--------------|---------------|
D|---------------|--------------|--------------|---------------|
A|--2-3-3--2-3-3-|--------------|--------------|---------------|
E|---------------|-1-0-0--1-0-0-|-4-5-5--4-5-5-|-4-5-5--4-5-5--|

Intro (no bass)
Chorus (no bass)
Verse	2x	
Chorus	2x
Bridge	2x
Verse	4x
Chorus	4x

Not 100% sure if the tabs are correct. If wrong, please correct. Enjoy!

Tetsuo0410 - monkeybusiness88@gmail.com
  development and support by
dmitry ivanov