rock
 
|tablatures   |lyrics   |discussion forums   |more tabs @ XGuitar.com

Jack Johnson tabs

Sexy Plexi bass tab

Jack Johnson - Sexy Plexi
Tabbed By Tone

VERSE
G-----------------------
D-----------------------
A-------4----2--2-----2-
E-2---2----2------2-2---   x4

PRE-CHORUS
G----------------------------
D----------------------------
A-------4--------------------
E-2---2----2-3-3---3-5-5---5-   x1

CHORUS
G---------------------------------
D---------------------------------
A---------------------------------
E-7-7---7-5-5---5-3-3---3-2-2---2-   x2

CHORUS END
G---------------------------------
D---------------------------------
A---------------------------------
E-7-7---7-7-7---7-7-7---7-7-7---7-   x1

VERSE 2
G-----------------------
D-----------------------
A-------4----2--2-----2-
E-2---2----2------2-2---   x3

PRE-CHORUS
G----------------------------
D----------------------------
A-------4--------------------
E-2---2----2-3-3---3-5-5---5-   x1

CHORUS
G---------------------------------
D---------------------------------
A---------------------------------
E-7-7---7-5-5---5-3-3---3-2-2---2-   x2

FILL
G---------------------------------
D---------------------------------
A-------------2-------------4-----
E-7-----7-2-2-------2-----2-----2-   x6

PRE-CHORUS
G----------------------------
D----------------------------
A-------4--------------------
E-2---2----2-3-3---3-5-5---5-   x1

CHORUS
G---------------------------------
D---------------------------------
A---------------------------------
E-7-7---7-5-5---5-3-3---3-2-2---2-   x2


Another great one by Jack Johnson! Enjoy!
  development and support by
dmitry ivanov