rock
 
|tablatures   |lyrics   |discussion forums   |more tabs @ XGuitar.com

Jack Johnson tabs

Rodeo Clowns bass tab

Jack Johnson - Rodeo Clowns
Tabber - Ucho
Tune - Standard

Very easy to play, you just have to listen the music a lot, to get it!!

x = mute

Verse:
G|------------------------------------------------------|
D|-------------666-4-4----x467-7---x76---x6-------------|
A|---4-444-------------4---------7-------7--------------|
E|------------------------------------------------------|

Chorus:
G|-----------------------|
D|--------666-7-444------|
A|----4------------------|
E|-----------------------|
  development and support by
dmitry ivanov