rock
 
|tablatures   |lyrics   |discussion forums   |more tabs @ XGuitar.com

Jack Johnson tabs

Mudfootball (For Moe Lerner) bass tab

Intro/Verse:

G ------------------------------------------------------------]
D ------------------------------------------------------------]
A -----2--------235-55-35-55-52--------2------235-55-35-55-5--]
E 3-33---3-3-33-----------------3-33-3---3-33-----------------]

Chorus:

G---------------------------------------------------------------------------]
D---------------------0-0-00-0------0-0-00-0-------0-0-00-0-------0-0-00-0--]
A---------------------------------------------------------------------------]
E 0-00---5-55---3-33-----------3-33-----------3-33-----------3-33-----------]

G------------------------------------------]
D---------------------0-0-0--00-0-0-0--00--]
A------------------------------------------]
E 3-3-3--33-3-3-3--33----------------------]

Soli:

G 10-9--7-10-9-7-10-9-7-10-9-7-555-5-55-555-5-55-----------]
D----------------------------------------------------------]    2x see alternative ending for the 2nd time
A----------------------------------------------------------]
E----------------------------------------------------------]

Alternative ending for the second time playing the bridge after the 10-9-7:
G-555-5-55-555--------]
D --------------------]
A --------------------]
E---------------------]

Bridge:

G-------------------------------------------------------------------------------------------------------]
D---------------------0-0-00-0------0-0-00-0------------------0--0-00-0-------0--0-00-0------0-0-00-0---]
A-------------------------------------------------------------------------------------------------------]
E 0-00---5-55---3-33----------3-33-----------0-00---5-55-3-33------------3-33-----------3-33------------]



G--------------------------------]
D-----0--0-00-0------0-0-00-0----]
A--------------------------------]
E -3-33-----------3-33-----------]



Song Line-up:
-Intro/Verse (starts with drums and singing)
-Chorus
-Intro/Verse
-Soli
-Intro/Verse
-Bridge
-Song ends with clapping to the beat of the guitar

Again my tabs are never perfect and I changed some stuff within the song such as at the chorus. Anyways it sounds good never the less. I'm open to any suggestions or comments on the tab.

Jack Johnson IS the best astist that has ever lived. Have fun with the song.
  development and support by
dmitry ivanov