rock
 
|tablatures   |lyrics   |discussion forums   |more tabs @ XGuitar.com

Jack Johnson tabs

Mediocre Bad Guys bass tab

Jack Johnson proves once again what an excellent musician he is with this simplistic masterpiece. This is my first tab, feel free to critique.


Intro:
G |-----------------------------|
D |------5----------------------|
A |-----5----7-----------5/9----|
E |-7----------5--5-3-3/7-------|
Repeats




Verse:
G |----------------------------------------------|
D |----------------------------------------------|
A |--------99-5------------------99-5------------|
E |-7--7-4--------5--6--7--77-4---------5--6--7--|
Repeats



Chorus:
G |-----------------------------|
D |------5----------------------|
A |-----5----7-----------5/9----|
E |-7----------5--5-3-3/7-------|
Repeats
A little faster than intro

I think thatís it, try it out while listening to the song to get the rhythm right. Enjoy!
  development and support by
dmitry ivanov