rock
 
|tablatures   |lyrics   |discussion forums   |more tabs @ XGuitar.com

Jack Johnson tabs

Inaudible Melodies guitar tab

INAUDIBLE MELODIES

All music and lyrics written by and property of Jack Johnson
Transcribed by Jai Mitchell
jai_mitchell@yahoo.com
http://members.optushome.com.au/jaimitchell

thanks to William Barret and his special slo-mo playback
for helping to point out errors, keep it up people...

Slow Sweet Intro:

 F#           C# Am/Bbm           C#  Bb/B             Bbm G#m
-2-2-2h4p2---2-4--5/6-6-6h9p6---6--9---6/7-7-7h9p7---7-6----4---
-2---------2---6--5/6---------7----9---6/7---------7---6----4---
-3-------------6--5/6--------------10--7/8-------------6----4---
-4-------------6--7/8--------------11--8/9-------------8----6---
-4-------------4--7/8--------------11--8/9-------------8----6---
-2----------------5/6--------------9---6/7-------------6----4---

Then It Gets Funky:
------------------2-5-2-2-------------------------------
-------3/5-3/5~--2--------2-------------------3/5-3/5~-
-------4/6-4/6~-------------2h4~-4-2~-2-------4/6-4/6~-
----------------------------------------2-3-4----------
-------------------------------------------------------
-0-1-2-------------------------------------------------

                                                  B7
-------------------------------------------2-5-2-2-
--------------------------------3/5-3/5~--2------4-
-4b5b4~-2----2h4~-4-2~-2--------4/6-4/6~---------2-
----------4~-------------2-3-4-------------------4-
-------------------------------------------------2-
---------------------------------------------------

The First Verse:
         F#      F#                B7      B7
----------2-------2-----------------2-------2----
----------2-------2-----------------4-------4----
----------3-------3-----------------2-------2----
-----4----4-------4--------4-4------4-------4----
-4/6------4-------4----4/6-----6-2~-2---2-2-2----
-------2~-2---2-2-2------------------------------
Brushfire Fairytales...


           F#     F#                 B7      B7
------------2-------2-----------------2-------2----
------------2-------2-----------------4-------4----
------------3-------3-----------------2-------2----
-------4----4-------4--------4-4------4-------4----
-4/6~-------4-------4----4/6-----6-2~-2---2-2-2----
---------2~-2---2-2-2------------------------------
Big Fat Hurricanes...


           C#7     C#7   B7      B7    F#      F#  C#7~
------------4-------4-----2-------2-----2-------2---4~~-
------------6-------6-----4-------4-----2-------2---6~~-
------------4-------4-----2-------2-----3-------3---4~~-
-----4-3----6-------6-----4-------4-----4-------4---6~~-
-4/6-----4~-4---4-4-4---2-2---2-2-2-----4-------4---4~~-
--------------------------------------2-2---2-2-2-------
Well Shourtcuts can...

F#
Well dust off your thinking caps
              B7
Solar powered plastic plants
                   F#
Pretty pictures of things we ate
            B7
We are only what we hate
                C#7
But in the long run we have found
                 B7
Silent films are full of sound
          F#         C#7
Inaudibly free


F#
Slow down everyone
       Bb
You're moving too fast
B
Frames can't catch you when
       G#
You're moving like that


F#
Inaudible melodies
   Bb
Of narrational strategies
B
Unobtrusive tones
        G#
Help to notice nothing but the zone
   F#
Of visual relevancy
Bb
Frame-lines tell me what to see
B
Chopping like an axe
         G#
So maybe Eisenstein should just relax


F#
Slow down everyone
       Bb
You're moving too fast
B
Frames can't catch you when
       G#
You're moving like that

Guitar solo thingy:
--11-14-11--11~------11-14-11------------11-14-11-----------11-11-11-11-14\0-
-11-------14--------11-------14-11~-----11-------14-12~----11----------------
-----------------------------------------------------------------------------
-----------------------------------------------------------------------------
-----------------------------------------------------------------------------
-----------------------------------------------------------------------------
F#
Well Plato's cave is full of freaks
Bb
Demanding refunds for the things they've seen
  B
I wish they could believe
           G#                G
In all the things that never made the screen
F#
And just slow down everyone
       Bb
You're moving too fast
B
Frames can't catch you when
       G#
You're moving like that
F#
Slow down everyone
       Bb
You're moving too fast
B
Frames can't catch you when
       G#
You're moving like that

Move into
(PLAY INTRO AS OUTRO PLUS ONE F# CHORD TO FINISH)
  development and support by
dmitry ivanov