rock
 
|tablatures   |lyrics   |discussion forums   |more tabs @ XGuitar.com

Jack Johnson tabs

Inaudible Melodies bass tab

intro
(start when drums come in).

G|---------------------------------------|
D|---------------------------------------|
A|--------2*--0---------2*--0---------4*-|
E|-0-1-2---------0-1-2---------0-1-2-----|


verse x2

G|-----------------------------------------------------------|
D|-----------------------------------------------------------|
A|-------------2--2222--2-------------2--2222--2--4--4444--4-|
E|-2--2222--2-------------2--2222--2-------------------------|

G|-------------------------|
D|-------------------------|
A|-2--2222--2--------------|
E|-------------2--2222--2*-|


Chorus

G|------------------------------------------------|
D|------------------------------------------------|
A|-------------1--1111--1---2--2222--2------------|
E|-2--2222--2---------------------------4--4444-4-|  x2

G|---------------------------------------------|
D|---------------------------------------------|
A|-------------1--1111--1---22222222-----------|
E|-2--2222--2-------------------------44444444-|  x1

G|------------------------------------------------|
D|------------------------------------------------|
A|-------------1--1111--1---2--2222--2------------|
E|-2--2222--2---------------------------4--4444-4-|  x2

G|-------------------------------|
D|-------------------------------|
A|----------1*-------2*----------|
E|-2*-------------------------4*-| x1

G|------------------------------------------------|
D|------------------------------------------------|
A|-------------1--1111--1---2--2222--2------------|
E|-2--2222--2---------------------------4--4444-4-|  x2


Outro

G|--------------------------|
D|-------1------------------|
A|-----4-----1-2---1--------|
E|-2-----------------4*--2*-| x1


thats it, the rhythm is a bit tricky but it sounds cool.
  development and support by
dmitry ivanov