rock
 
|tablatures   |lyrics   |discussion forums   |more tabs @ XGuitar.com

Jack Johnson tabs

Good People guitar tab

Dont blame me for givin it a go guys.

GOOD PEOPLE - JACK JOHNSON

Intro
e|--x-x-x-------------------------9-------------------------|
b|--x-x-x-------------------------9---/11--11--9--7---------|
g|--x-x-x-------9b---9p7--------------/11--11--9--7---------|
d|--x-x-x----------------9----------------------------------|
a|--x-x-x---------------------------------------------------|
E|--x-x-x-7--7--------------9--9----------------------------|


e|------------------------------9---------------------------|
b|------------------------------9-----7-7-5-7p5-------------|
g|---------9b---9p7---7--------------------------6----------|
d|------------------9---------------------------------------|
a|----------------------------------------------------------|
E|---7--7-----------------9--9------------------------------|

Verse
e|--------7----------7----------9-----------9---------------|
b|--------7----------9----------9-----------11--------------|
g|--------8----------9----------9-----------11--------------|
d|--------9----------9----------11----------11--------------|
a|--------9----7--7--7----------11----9--9--9---------------|
E|--7--7--7---------------9--9--9---------------------------|

Chorus
e|--------7------------7-------------9-------------9--------|
b|--------7------------9-------------9-------------9--------|
g|--------8------------9-------------9-------------11-------|
d|--------9------------9-------------11------------11-------|
a|--------9------7--7--7--/11--------11--7--9--9--9---------|
E|--7--7--7--10----------------9--9--9-----------------/10--|

Solo/Intro #2
e|---------------------------9-----9--7---------------------|
b|---------------------------9----x------9------------------|
g|---------9b---9p7--------------x------------9-------------|
d|------------------9---------------------------------------|
a|----------------------------------------------------------|
E|---7--7--------------9--9---------------------------------|


e|---------------------------7------------------------------|
b|---------------------------7------------------------------|
g|---------9b---9p7--------------9--7--9--7--9--7--9--------|
d|------------------9------------9--9--9--9--9--9---9-------|
a|----------------------------------------------------------|
E|---7--7--------------7--7---------------------------------|

Bridge
e|----7----------7----------9-----------9-------------------|
b|----7----------9----------9-----------11------------------|
g|----8----------9----------9-----------11------------------|
d|----9----------9----------11----------11------------------|
a|----9----------7----------11----------9-------------------|
E|----7---------------------9-------------------------------|
  development and support by
dmitry ivanov