rock
 
|tablatures   |lyrics   |discussion forums   |more tabs @ XGuitar.com

Jack Johnson tabs

Good People bass tab

Verse
G|-------------------------------------
D|-------------------------------------
A|-------6-7-7---11-------11-9-9-------  x8
E|-7-7--------------9-9----------------

Chorus
G|-------------------------------------
D|-------------------------------------
A|-------6-7-7---11-------11-9-9--7/9-- x4
E|-7-7--------------9-9----------------

Verse
G|-------------------------------------
D|-------------------------------------
A|-------6-7-7---11-------11-9-9-------  x4
E|-7-7--------------9-9----------------

Solo/Bridge
G|-------------------------------------
D|-------------------------------------
A|-------6-7-7---11-------11-9-9-------  x2 (guitar solo)
E|-7-7--------------9-9----------------

G|-------------------------------------------
D|-------------------------------------------
A|-7-7--7-7--5----------3/4-4--4-4--9-9--9-9- x4 (bridge)
E|------------7-7--7-7-----------------------

Verse
G|-------------------------------------
D|-------------------------------------
A|-------6-7-7---11-------11-9-9-------  x8
E|-7-7--------------9-9----------------
  development and support by
dmitry ivanov