rock
 
|tablatures   |lyrics   |discussion forums   |more tabs @ XGuitar.com

Jack Johnson tabs

Flake bass tab

Jack Johnson - Flake
Standard Tuning

Main Riff
G]------------------------------------------I
D]-----------3/-----------------------------I
A]-345--55------------3/1--11---3/----------I
E]-------------1--11--------------1--11-----I

G]----------------------------------------------I
D]-----------3/---------------------------------I
A]-345--55------------3/1--11---1-3--33--3-0-3--I
E]-------------1--11----------------------------I

Chorus
G]------------------------------------------------------------------------------------I
D]------------------------------------------------------------------------------------I
A]-----------03--33--345--55--505-0--00--0-01--11--1-03--33--303---------03--33--303--I
E]-1--11---11-----------------------------1---------1-----------1--11--11-------------I

G]-------------------------------------------------------------------------------------I
D]-------------------------------------------------------------------------------------I
A]-----------03--33--345--55--505-0--00---0-01--11---1-03--33--303----------03--33--34-I
E]-1--11---11------------------------------1----------1-----------11--1---11-----------I

Pre-Chorus
G]-------------------------------------------------------I
D]-----3/------------------------3/----------------------I
A]-5~--------3/1~---3/----345~----------3/1~------3/-----I
E]-------1~-----------1~-----------1~---------------1~---I
  development and support by
dmitry ivanov