rock
 
|tablatures   |lyrics   |discussion forums   |more tabs @ XGuitar.com

Jack Johnson tabs

Drink the Water bass tab

Song: Drink the Water
Artist: Jack Johnson
Album: Brushfire Fairytales
Tabbed By: ADRA (d_abernathy20@hotmail.com)


*= let ring


Verse
G|------------------------------------------------------------|
D|-11*-11-11------11*-11-11-11-10-----------------------------|
A|-----------9-11-----------------11*-11-11-11-10-9*-9-9-9-11-|
E|------------------------------------------------------------|


Chorus
G|----------------------------------------------------------|
D|-------------------------9-11*-11-11------11*-11-11-11-10-|
A|-7*-7-7-7-9-11*-11-11-11-------------9-11-----------------|
E|----------------------------------------------------------|

G|-------------------------------|
D|-------------------------9-11*-|
A|-7*-7-7-7-9-11*-11-11-11-------|
E|-------------------------------|


That's pretty much all you need to know. I'm not going to bother
putting the timing because the whole song is the verse except 3
parts when it is obliously the chorus just once time each. It's
pretty simple like Jack's bassist likes to make it, so just get
rhythm and you will be set. Enjoy.
  development and support by
dmitry ivanov