rock
 
|tablatures   |lyrics   |discussion forums   |more tabs @ XGuitar.com

Jack Johnson tabs

Dreams Be Dreams guitar tab

----------------------------------------------------------------------------
		    Dreams be Dreams - Jack Johnson
----------------------------------------------------------------------------
Tabbed by: Shawn Artman
E-Mail: ShawnArtman@yahoo.com

Tuning: Standard                          Order: Intro
                                                 Fill x3 w/trans
 Intro                  Fill x3                  Verse A x6
e|--7/10--\7----5/7\5--|--7------------------|   Verse B x2
B|--7/10--\7----5/7\5--|--7h10-7---7---------|   Fill x3 w/trans
G|---------------------|---------9-7h9-7-----|   Solo
D|---------------------|------------------9--|   Verse A x10
A|---------------------|---------------------|   End on D
E|---------------------|---------------------|

 Transition to verse (4th time)
e|-------------------------------------------|
B|-------------------------------------------|
G|--7----------------------------------------|
D|--7h9-7------------------------------------|
A|--------9-7\5------------------------------|
E|--------------7----------------------------|

  Verse-A
  D          Bm       G        A
e|-------------------------------------------|
B|-------------------------------------------|
G|-------------------------------------------|
D|------4--------0---------------------------|
A|--0-5------0-2------0---2---------4--------|
E|----------------------3------3-3/----------|

  She's just waiting for the summertime
  when the weathers fine
  and she could hitch a ride out of town
  and so far away
  from that low, down, good for nothing
  mistake making fool, with excuses like...

  Verse-B                                        2nd time end on this
  D               Bm            G             A               V
e|--------------------------------------------------------|--------|
B|--------------------------------------------------------|--------|
G|--------------------------------------------------------|--------|
D|------4--4-4--------0--0-0------------------------------|--------|
A|--0-5----5------0-2----2------0---2--2-2--------4--4-4--|--4-4---|
E|--------------------------------3----3------3-5----5----|--5-5---|

  "baby that was a long, time ago"
  but thats just a euphemism
  if you want the truth he was out, of control
  but a short time's a long time
  when your mine just won't let it go.

  Solo
e|------------------------------------------------------7-------------|
B|----------------7-------------------------------------7h10-7--------|
G|----------7-----7h9-7---7----------------------7-------------9-7----|
D|--/7--7h9---9---------9-7h9-7----------/7--7h9---9---------------9--|
A|-------------------------------9-7----------------------------------|
E|--------------------------------------------------------------------|

  Well summer came along and then it was gone
  and so was she but not from him
  cause he followed her just to let her know
  her dreams are dreams
  and this living is so much harder than it seems
  but girl dont let your dreams be dreams
  you know this living not so hard as it seems
  dont let your dreams be dreams



============================================================================
All I have to say is that its about time this tab was a part of the UG archive...
Please submit a reveiw or e-mail me.   Thanks  -Shawn
  development and support by
dmitry ivanov