rock
 
|tablatures   |lyrics   |discussion forums   |more tabs @ XGuitar.com

Jack Johnson tabs

Constellations guitar tab

Tabbed by Tofu (cs@moodynolan.com)
Artist: Jack Johnson
Song: Constellations

Capo on 1

Intro

|3---2---3---5---3---2-----------|------------5---3---1-----------|
|------------------------3-------|----3---1---------------1-------|
|--------------------------------|--------------------------------|
|--------------------------------|--------------------------------|
|--------------------------------|--------------------------------|
|--------------------------------|--------------------------------|


|--------------------------------|------------2---0---------------|
|1-----------3-------1-----------|3-------------------3-----------|
|----0-------------------0-------|----2-------------------2-------|
|--------2-----------------------|--------4-----------------------|
|--------------------------------|--------------------------------|
|--------------------------------|--------------------------------|


After Intro it goes into this

Verse Part A

|----3---3---5---5---3---3---2---|3-------------------------------|
|----3---3---3---3---3---3---3---|3---3---3---3-------------------|
|----4---4---4---4---4---4---4---|4---4---4---4-------------------|
|----5---5---5---5---5---5---5---|5---5---5---5-------------------|
|--------------------------------|--------------------------------|
|--------------------------------|--------------------------------|


|----3---3---3-------3---3---3---|----3---3---3-------3---3---3---|
|----5---3---3-------3---3---3---|----3---3---3-------3---3---3---|
|----5---5---5-------5---5---5---|----5---5---5-------5---5---5---|
|----5---5---5-------5---5---5---|----5---5---5-------5---5---5---|
|--------------------------------|--------------------------------|
|--------------------------------|--------------------------------|


Verse Part B

|----0------0-----|
|----1------3-----|
|----0------2-----|
|----2------0-----|
|----3------0-----|
|-----------3-----|


 Chorus
   G     F     C     D
|--3-----1-----3-----5---------------|
|--3-----1-----5-----7---------------|
|--4-----2-----5-----7---------------|
|--5-----3-----5-----7---------------|
|--5-----3-----3-----5---------------|
|--3-----1---------------------------|


 Middle Solo
|----3-----------5---------------|----7-----------5---------------|
|--------0---1-------1---0---3---|--------3---1-------1---0---3---|
|--------------------------------|--------------------------------|
|--------------------------------|--------------------------------|
|--------------------------------|--------------------------------|
|--------------------------------|--------------------------------|


|----0---------------------------|----3---------------------------|
|--------3---1-------1--1/3--3---|--------3---3-----0-3-1/3---3---|
|----------------0-2-------------|----------------0---------------|
|--------------------------------|--------------------------------|
|--------------------------------|--------------------------------|
|--------------------------------|--------------------------------|


|----3-----------5-----------3---|----7---5-3-0--3/5------3---0---|
|--------0---3-------3---0-------|--------------------------------|
|--------------------------------|--------------------------------|
|--------------------------------|--------------------------------|
|--------------------------------|--------------------------------|
|--------------------------------|--------------------------------|


|----3---0-----------0---3---0---|----0---------------2-----------|
|------------3---1/3-------------|------------3-----------3-------|
|--------------------------------|--------0-------------------0---|
|--------------------------------|----------------4---------------|
|--------------------------------|--------------------------------|
|--------------------------------|--------------------------------|
  development and support by
dmitry ivanov