rock
 
|tablatures   |lyrics   |discussion forums   |more tabs @ XGuitar.com

Jack Johnson tabs

Better Together bass tab

This is another of the new album . It is a nice major scale decend.

Verse
g----------------------------------------------]
d-3--3-2--2-0--0-------------------------------]
a---------------3--3-1--1-0--0-----------------]
e-----------------------------3--3-1--1--------]

it is a flowing song so keep it easy and loose

Chorus
g----------------------------------------------]
d----------------------------------------------]
a-1--1--3--3--1--1--3--3-----------------------]
e----------------------------------------------]

The chorus is basic and nice.
Listen for how many times each is played and she will be apples.
I am gav and i hope u enjoy this...jack is awsome.
  development and support by
dmitry ivanov