rock
 
|tablatures   |lyrics   |discussion forums   |more tabs @ XGuitar.com

Jack Johnson tabs

Belle guitar tab

This is Jack Johnson's Belle a great song sung in French but it is great non
The less enjoy.

Hey this is Jamie Neville-Young Goodlooking123 bobsmith81@hotmail.com
This is my very own tab my guitar teacher tort me this I wanted to tab it for
Everyone so here it is .
INTRO:
Em7
E-0
B-3  6 down strokes
G-0
D-2
A-2
E-0

E----------------------|---------------|-------------------------------------------|
B-----3-------3--------|--4---------3--|------3----------3---3----3-----------3----|
G-----4-------4--------|--4-------4----|------3----------3---3----3---------3------|
D-----4-------4--------|--3-----4------|------3----------3---2----2------2---------|
A----------------------|---------------|-------------------------------------------|    PLAY THAT 2s
E-3------3-3--------3--|----3----------|--3------3-3-----3---3----3---3------------|

                                   play fast
E------2----------2------3---3-------3-3-3-------|
B------3----------3------4---4-------4-4-4-------|
G------2----------2------3---3-------3-3-3-------|
D------------------------------------------------|   well dont really play it fast but if you know the song
A-2------2-2-------------3---3----3--------------|   you'll know what to do
E------------------------------------------------|


Thank you any questions send me an email if I find n e one copying this I will be
Very angry.
RATE PLEASE          note i havent finished this yet but i will complete it thank you
  development and support by
dmitry ivanov