rock
 
|tablatures   |lyrics   |discussion forums   |more tabs @ XGuitar.com

Iron Maiden tabs

Wrathchild bass tab

Iron Maiden
Wrathchild

Transcribed By: Ryan Huntsman  (IbanezBassMX)
Email: Ryan82184@aol.com

Standard Tuning

Intro  (0:00)
G-------------------------------------------------------------------
D-------------------------------------------------------------------  X3
A-5h7-7-7---------5h7-7-7---------5h-7-7-7---------5-5-4-5-7-5-4----
E---------0-0-0-0---------0-0-0-0----------0-0-0-0---------------0--

1st and 2nd Verses  (0:14, 1:57)
G-------------------------------------------------------------------
D-------------------------------------------------------------------  X2
A-5h7-7-7---------5h7-7-7---------5h-7-7-7---------5-5-4-5-7-5-4----
E---------0-0-0-0---------0-0-0-0----------0-0-0-0---------------0--

G---------------------------------
D----------------5-5-4-5-7-5-4-0--
A-5h7-7-7-7--7-7------------------
E---------------------------------

Pre-Chorus  (0:23, 2:06)
G--------------------------------------------------------
D----------------------5---------------------------------
A-3--3-3-3-3-3-2-2-2-2---5h7-7-7-7--7-7-5h7-7-7-7-0-5-0--
E--------------------------------------------------------

G--------------------------------------------------------------------------------
D----------------------5---------------------------------------------------------
A-3--3-3-3-3-3-2-2-2-2---5h7-7-7-7--7-7-5h7-7-7-7-0-5-0-3-3-3-3-3-3-2-2-2-2-2-2--
E--------------------------------------------------------------------------------

G------------------------------------------------------------
D-5--5-5-5--5-5-4-4-4-4~---0------------------------5-5-4----
A------------------------0---0-3--3-3-3--3-3-2-2-2--------0--
E------------------------------------------------------------

G---------------------------------------------------------------
D----------------------------------------------5-5-4-5-7-5-4----
A-5h7-7-7-7--7-7-5h7-7-7-7--7-7-5h7-7-7-7--7-7---------------0--
E---------------------------------------------------------------

G---------------------------------------------------------------
D----------------------------------------------5-5-4-5-7-5-4----
A-5h7-7-7-7--7-7-5h7-7-7-7--7-7-5h7-7-7-7--7-7---------------0--
E---------------------------------------------------------------

Chorus  (0:48, 2:32)
G------------------------------------------------------------
D--------------------------------------------5-6-7-----------
A-5h7-7-7-7-7-7-7-5---5~---5-0-5h7-7-7-7-7-7-------5~-0-5-0--
E-------------------7----7-----------------------------------

G--------------------------------------------------------
D--------------------------------------------------------
A-5h7-7-7-7-7-7-7-5---5~---5--3-3-3-3-3----3--3----3--3--
E-------------------7----7---------------3-------3-------

G------------------------------------------------------
D------------------------------------------------------
A-5-5-5-5-5----5--5----5--5--7-5---5~----5~------------
E------------5-------5-----------7----7-----7--6-5--3--

Guitar Solo  (1:02)
G---------------------------------------------7h9~-9-9-9-9p7--------
D---------------------------------------7-8-9----------------9-7----
A-5h7-7-7-7--7-7-5h7-7-7-7--7-7-5h7-7-7--------------------------0--
E-------------------------------------------------------------------

G---------------------------------------------9-----7------------
D---------------------------------------5-7-9---9-7---7-5--------
A-5h7-7-7-7--7-7-5h7-7-7-7--7-7-5h7-7-7-------------------5-5-0--
E----------------------------------------------------------------

G-----------------------------------------------9-8-------------
D---------------------------------------------------10-9-7-5----
A-5h7-7-7--------5h7-7-7--------5h7-7-7----------------------0--
E---------0--0-0---------0--0-0---------0--0-0------------------

G-------------------------------------------------------------------
D-------------------------------------------------------------------  X3
A-5h7-7-7---------5h7-7-7---------5h-7-7-7---------5-5-4-5-7-5-4----
E---------0-0-0-0---------0-0-0-0----------0-0-0-0---------------0--

Interlude  (1:20)
G------------------------------------------------------------------------------
D------------------------------------------------------------------------------
A-3-3-3-3-3----3--3----3--3-5-5-5-5-5----5--5----5--5--7-5---5~---5~-----------
E------------3-------3-----------------5-------5-----------7----7----7-6-5--3--

(1:28)
G----------------------------
D----------------------------  X3
A-------5-----7--------------
E-7-7-7---7-7---7-6-5-3-0-0--

G-----------------------------------------------------
D--------------------------------2-----2--------------
A-------5-----5------------4-4-4---4-4---4-3-2-----0--
E-7-7-7---7-7---7-6-5-3-0----------------------5-2----

G-----------------------------------------------------------------------------
D-------2-----2--------------------3-----3-----------------3-----3------------
A-4-4-4---4-4---4-3-2-----0--5-5-5---5-5---5-4-3-----5-5-5---5-5---5-4-3------
E---------------------5-2------------------------6-3---------------------6-3--

G-------------------------
D-------------------------
A-7-5---5~---5~-----------
E-----7----7----7-6-5--3--

Re-Intro  (1:48)
G-------------------------------------------------------------------
D-------------------------------------------------------------------  X2
A-5h7-7-7---------5h7-7-7---------5h-7-7-7---------5-5-4-5-7-5-4----
E---------0-0-0-0---------0-0-0-0----------0-0-0-0---------------0--

Outro  (2:43)
G-------------------------
D-------------------------  X3
A-7-5---5~---5~-----------
E-----7----7----7-6-5--3--

G-----
D-----
A-7\--
E-----

Thats it, this is a cool song, Enjoy!!
GW. Jan. 2003
Please rate this tab, Thanks.
  development and support by
dmitry ivanov