rock
 
|tablatures   |lyrics   |discussion forums   |more tabs @ XGuitar.com

Iron Maiden tabs

Wildest Dreams guitar tab

Wildest dreams
                    (Live bootleg, Rock am Ring, 6.june 2003)
                                 by Iron Maiden


			          VERSION 1.0

Transcribed by The.Fugitive
e-mail suggestions, comments to:
 davey@basicintellects.com

Legend:

b = bend
r = release
p = pull-off
h = hammer-on
~ = vibrato
/ = slide
A = artificial harmonics
x = palm muting

             -=For rythm on individual parts, listen to the song!=-

Bruce:
So, um.. anyway, this is the.. this is the song, after all that talking, here's the music.
WILDEST DREAMS THIS ONE!

INTRO(0:10):
Adrian
e|------------------------------------|-----------------------------------------
B|------------------------------------|-----------------------------------------
G|------------------------------------|-----------------------------------------
D|--6-6-------------------------6-7-6-|------------6-6---------------------4-5-7
A|--7-7-------------------------7-7-7-|------------7-7---------------------5-5-5
E|--0-0-------------------------0-0-0-|------------0-0---------------------0-0-0

Dave
e|------------------------------------|-----------------------------------------
B|------------------------------------|-----------------------------------------
G|------------------------------------|-----------------------------------------
D|------6-6-6-6-7p6-6-7p6-6-6-6-6-7-6-|6-6--9-7-6--6-6-6-7p6-6-6-7p6--6-6--4-5-7
A|------7-7-7-7-7-7-7-7---7-7-7-7-7-7-|7-7--7-7-7--7-7-7-7-7-7-7-7-7--7-7--5-5-5
E|------------------------------------|-----------------------------------------
          x x     x x     x x          x x         x x x              x x

Janick
e|------------------------------------|-----------------------------------------
B|------------------------------------|-----------------------------------------
G|------------------------------------|-----------------------------------------
D|------------------------------------|6-6--6-7-6--6-6-7-7p6-7-7-7p6--6-6--4-5-7
A|------------------------------------|7-7--7-7-7--7-7-7-7-7-7-7-7-7--7-7--5-5-5
E|------------------------------------|-----------------------------------------
                                       x x                            x x


VERSE(0:21):
Adrian
e|------------------------------------------------------------------------------
B|------------------------------------------------------------------------------
G|------------------------------------------------------------------------------
D|--6-7-6--------6-6-------6-7-6--------6-6-------6-7-6--------6-6--6-6--4-5-7--
A|--7-7-7--7-7-7-7-7--7-7--7-7-7--7-7-7-7-7--7-7--7-7-7--7-7-7-7-7--7-7--5-5-5--
E|--0-0-0--0-0-0------0-0--0-0-0--0-0-0------0-0--0-0-0--0-0-0------0-0---------
           x x x      x x         x x x      x x         x x x      x x

Dave
e|------------------------------------------------------------------------------
B|------------------------------------------------------------------------------
G|------------------------------------------------------------------------------
D|--6-7-6--6-6-6-7p6--6-6--6-7-6--6-6-6-7p6--6-6--6-7-6--6-6-6-7p6--6-6--4-5-7--
A|--7-7-7--7-7-7-7-7--7-7--7-7-7--7-7-7-7-7--7-7--7-7-7--7-7-7-7-7--7-7--5-5-5--
E|------------------------------------------------------------------------------


Janick
e|------------------------------------------------------------------------------
B|------------------------------------------------------------------------------
G|------------------------------------------------------------------------------
D|--6-7-6--7-7-7-7p6--6-6--6-7-6--7-7-7-7p6--6-6--6-7-6--7-7-7-7p6--6-6--4-5-7--
A|--7-7-7--7-7-7-7-7--7-7--7-7-7--7-7-7-7-7--7-7--7-7-7--7-7-7-7-7--7-7--5-5-5--
E|------------------------------------------------------------------------------



BRIDGE(0:47):
Adrian
e|----------------------------------------- |-----------------------------------
B|----------------------------------------- |-----------------------------------
G|----------------------------------------- |-----------------------------------
D|----------------------------------------- |-----------------------------------
A|--3-------5------------3-------5--------- |3-------5------------3-------5-5-2-
E|--1-------3------------1-------3--------- |1-------3------------1-------3-3-0-


Dave
e|------------------------------------------------------------------------------
B|------------------------------------------------------------------------------
G|------------------------------------------------------------------------------
D|--10--------12-12-10-9-------12-10-9----10--------12-12-10-9-------12-10-9----
A|--8---------10---------12-10---------12-8---------10---------12-10---------12-
E|------------------------------------------------------------------------------

 |------------------------------------------------------------------------------
 |------------------------------------------------------------------------------
 |------------------------------------------------------------------------------
 |--10--------12-12-10-9-------12-10-9----10--------12-12-9---------------------
 |--8---------10---------12-10---------12-8---------10-10-7---------------------
 |------------------------------------------------------------------------------


Janick
e|------------------------------------------------------------------------------
B|------------------------------------------------------------------------------
G|------------------------------------------------------------------------------
D|--5---------7-7-5-4-----7-5-4---5---------7-7-5-4-----7-5-4---5---------------
A|--3---------5-------7-5-------7-3---------5-------7-5-------5-3---------------
E|------------------------------------------------------------------------------

 |------------------------------------------------------------------------------
 |------------------------------------------------------------------------------
 |------------------------------------------------------------------------------
 |--5---------7-7-5-4-----7-5-4---5---------7-7-4-------------------------------
 |--3---------5-------7-5-------7-3---------5-5-2-------------------------------
 |------------------------------------------------------------------------------



CHORUS(1:05):
e|------------------------------------------------------------------------------
B|------------------------------------------------------------------------------
G|---------------7-5-7p5--------------------------------7-5-7p5-----------------
D|--7-7-6-7--4-5-7-5------7-7-6-7--4-5-5---7-7-6-7--4-5-7-5------7-7-6-7--4-5-5-
A|--7-7-7-7--5-5-5--------7-7-7-7--5-5-3---7-7-7-7--5-5-5--------7-7-7-7--5-5-3-
E|------------------------------------------------------------------------------



FILL RIFF(2:18):
e|------------------------------------------------------------------------------
B|------------------------------------------------------------------------------
G|--7-5-4-----------------------------------------------------------------------
D|--------7-5-4--7-5-4-------4--------------------------------------------------
A|---------------------7-5-4-2--------------------------------------------------
E|------------------------------------------------------------------------------
Same as the OUTRO(3:50)



SOLO RYTHM(2:20):
e|------------------------------------------------------------------------------
B|------------------------------------------------------------------------------
G|------------------------------------------------------------------------------
D|--4-------4-------4-----7-6-5-4-----------------------------------------------
A|--2-------2-------2-----5-4-3-2-----------------------------------------------
E|------------------------------------------------------------------------------



HARMONY RYTHM(2:38):
e|------------------------------------------------------------------------------
B|------------------------------------------------------------------------------
G|------------------------------------------------------------------------------
D|--5-------7-------9-------(listen to the song and repeat this section)--------
A|--3-------5-------7-----------------------------------------------------------
E|------------------------------------------------------------------------------


HARMONY(2:38):
e|--17b-17~-17br-15~/-----------------------------------------------------------
B|----------------------9-10-12/13~~-12~-10~-9~~-10-12-13~~-15-13h15p13p12~~~~~~
G|------------------------------------------------------------------------------
D|------------------------------------------------------------------------------
A|------------------------------------------------------------------------------
E|------------------------------------------------------------------------------

 |------------------------------------------------------------------------------
 |--12-13-12h13p12h13p12-(repeat till the ambulace comes or till 3:05)----------
 |------------------------------------------------------------------------------
 |------------------------------------------------------------------------------
 |------------------------------------------------------------------------------
 |------------------------------------------------------------------------------




SONG PROGRESSION (noted times are the times when the riff starts):
 0:10 - [INTRO]
 0:21 - [VERSE]
 0:29 - [VERSE]
 0:38 - [VERSE]
 0:47 - [BRIDGE]
 1:05 - [CHORUS]
 1:14 - [CHORUS]
 1:23 - [VERSE]
 1:33 - [VERSE]
 1:42 - [BRIDGE]
 2:00 - [CHORUS]
 2:09 - [CHORUS]
 2:18 - [FILL RIFF]
 2:20 - [SOLO]+[SOLO RYTHM]
 2:38 - [HARMONY]+[HARMONY RYTHM]
 3:14 - [CHORUS]
 3:24 - [CHORUS]
 3:32 - [CHORUS]
 3:41 - [CHORUS]
 3:50 - [FILL RIFF]

LYRICS:
I'm going to organise some changes in my life
i'm gonna exorcise the demons of my past
i'm gonna take my car and hit the open road
i'm feeling ready to just open up and go

i now just feel like i'm the enemy
the one i never wished to be
i finaly decided what i want to be
make my wildest dreams come true

I'm on my way
out on my own again
I'm on my way
out on my own again

but how i've been and how these things just used to be
how i've been stuck inside and full of missery
i get so dissapointed deep inside myself
i couldn't find a way to break away the hell

when i'm feeling down and low
i found i'll never be the same again
i visualise what i am
and then it starts just what i'm gonna be

I'm on my way
out on my own again
I'm on my way
out on my own again

(solo)

(mellody part)
i'm gonna break away
out on my own
gonna break away
out on my own

breaking awaaay

I'm on my way
out on my own again
(repeat 3x)
I'm on my way
I'm gonna break away
  development and support by
dmitry ivanov