rock
 
|tablatures   |lyrics   |discussion forums   |more tabs @ XGuitar.com

Iron Maiden tabs

Wildest Dreams bass tab

Band: Iron Maiden
 Album: Dance of Death
 Song: Wildest Dreams
 Tabbed by Teemu "T2k5" Aulanko (t2k5@mbnet.fi)
Comments: From the best album ever made by Iron Maiden.
          A good song that sounds good.
 |Intro|x1
|9-----9-----------------9-----8-|--9-------------9-----9---------|
|9-----9-----------------9-----8-|--9-------------9-----9---------|
|7-----7-----------------7-----6-|--7-------------7-----7---------|
|--------------------------------|--------------------------------|

|7-----6-----2-------------------|--------------------------------|
|7-----6-----2-------------------|--------------------------------|
|5-----4-----0-------------------|--------------------------------|
|--------------------------------|--------------------------------|

 |Riff.1|x3
|9-----9-------------------------|9-----8-----9-------------------|
|9-----9-------------------------|9-----8-----9-------------------|
|7-----7-7-7-7-7-7-7-7-7-7-7-7-7-|7-----6-----7-7-7-7-7-7-7-7-7-7-|
|--------------------------------|--------------------------------|

|9-----9-------------------------|7-----6-----2-------------------|
|9-----9-------------------------|7-----6-----2-------------------|
|7-----7-7-7-7-7-7-7-7-7-7-7-7-7-|5-----4-----0-0-0-0-0-0-0-0-0-0-|
|--------------------------------|--------------------------------|

 |Riff.2p1|x3
|--------------------------------|--------------------------------|
|--------------------------------|------5---5-4-3-------5---5-4-3-|
|3---3-3-3-3-3-3-3-3-3-3-3-3-3-3-|3---------------3---------------|
|--------------------------------|--------------------------------|
 |Riff.2p2|x1
|--------------------------------|--9-----8-----9-----------------|
|--------------------------------|--9-----8-----9-----------------|
|3---3-3-3-3-3-3-3-3-3-3-3-3-3-3-|3-7-----6-----7-7-7-7-7-7-7-7-7-|
|--------------------------------|--------------------------------|

 |Riff.3|(chorus)x2
|------------------------------9-|----8-----9-----9---9-8-6-7-----|
|------7---7-----7---7-----7---9-|----8-----7-----7---7-6-4-5-----|
|7---7---------7---7---7-7-----7-|----6---------------------------|
|--------------------------------|--------------------------------|

|------------------------------7-|----6-----7-----7---7-6-5-7-----|
|------7---7-----7---7-----7---7-|----6-----5-----5---5-4-3-4-----|
|7---7---------7---7---7-7-----5-|----4---------------------------|
|--------------------------------|--------------------------------|

 |Riff.1|x2
 |Riff.2p1|x3
 |Riff2p2|x1
 |Riff.3|x2
 
 |Fill|
|7-5-----------------------------|
|------7---5---6---4-7-5---------|
|------------------------7-5-3-5-|
|--------------------------------|

 |Solo Riff|x4
|--------------------------------|--------------------------------|
|----4-------4-------4-------4---|----4-------4-------------------|
|2-2---2-2-2---2-2-2---2-2-2---2-|2-2---2-2-2---2-2-2-2---0-0-0---|
|--------------------------------|--------------------------------|

 |Riff.4|x2
|--------------------------------|----------------9-----8-----7---|
|5---------------7---------------|9---------------7-----6-----5---|
|3---------------5---------------|7-------------------------------|
|--------------------------------|--------------------------------|

|--------------------------------|--------------------------------|
|5---------------7---------------|9-----------3-3-5-----7-----9---|
|3---------------5---------------|7-------------------------------|
|--------------------------------|--------------------------------|

 |Riff.5|x4
|--------------------------------|--------------------------------|
|5---------------7---------------|9-------------------------------|
|3-3-3-3-3-3-3-3-5-5-5-5-5-5-5-5-|7-7-7-7-7-7-7-7-7-7-7-7-7-7-7-7-|
|--------------------------------|--------------------------------|

|Riff.3|x4
|Fill|
  development and support by
dmitry ivanov