rock
 
|tablatures   |lyrics   |discussion forums   |more tabs @ XGuitar.com

Iron Maiden tabs

When Two Worlds Collide bass tab

#----------------------------------PLEASE NOTE--------------------------------#
#This file is the author's own work and represents their interpretation of the#
#song. You may only use this file for private study, scholarship, or research.#
#-----------------------------------------------------------------------------#
#-- File created with Instab - http://www.pconline.com/~smcarey/instab.html --#
#-----------------------------------------------------------------------------#

Author/Artist: Iron Maiden
Title: When Two Worlds Collide
Album: Virtual XI
Transcribed by: André Baida from BRAZIL
Email: andrecp@bestway.com.br

Tune: E A D G
             
Intro with Synth Bass.
                                                                  
And then:

                                                           
G---------------------------|------------------------------|
D---------------------------|------------------------------|
A---------------------------|--2--2-2-2--2-2-2--2-2-2--2-2-|
E--2--2--2--2--2--2--2------|------------------------------|


                                                              
G------------------------------|------------------------------|
D------------------------------|------------------------------|
A--2--2-2-2--2-2-2--2-2-2--2-2-|------------------------------|
E------------------------------|--3--3-3-3--3-3-3--3-3-3--3-3-|


                                                              
G------------------------------|------------------------------|
D--2--2-2-2--2-2-2--2-2-2--2-2-|------------------------------|
A------------------------------|--2--2-2-2--2-2-2--2-2-2--2-2-|
E------------------------------|------------------------------|


                                                              
G------------------------------|------------------------------|
D------------------------------|------------------------------|
A--2--2-2-2--2-2-2--2-2-2--2-2-|------------------------------|
E------------------------------|--3--3-3-3--3-3-3--3-3-3--3-3-|


                                                              
G------------------------------|------------------------------|
D--2--2-2-2--2-2-2--2-2-2--2-2-|------------------------------|
A------------------------------|------------------------------|
E------------------------------|--3--3-3-3--3-3-3--3-3-3--3-3-|


                                                              
G------------------------------|------------------------------|
D------------------------------|------------------------------|
A--0--0-0-0--0-0-0--0-0-0--0-0-|------------------------------|
E------------------------------|--3--3-3-3--3-3-3--3-3-3--3-3-|


                                                              
G------------------------------|------------------------------|
D------------------------------|------------------------------|
A--0--0-0-0--0-0-0--0-0-0--0-0-|------------------------------|
E------------------------------|--3--3-3-3--3-3-3--3-3-3--3-3-|


                                                              
G------------------------------|------------------------------|
D------------------------------|-----------------------0--0-0-|
A--0--0-0-0--0-0-0--0-0-0--0-0-|--2--2-2-2--2-2-4--4-4--------|
E------------------------------|------------------------------|


                                                              
G------------------------------|------------------------------|
D----------------2--2-2-2--2-2-|-----------------------0--0-0-|
A------------------------------|--2--2-2-2--2-2-4--4-4--------|
E--3--3-3-3--3-3---------------|------------------------------|


                                                              
G------------------------------|------------------------------|
D----------------2--2-2-2--2-2-|-----------------------0--0-0-|
A------------------------------|--2--2-2-2--2-2-4--4-4--------|
E--3--3-3-3--3-3---------------|------------------------------|


                                                              
G------------------------------|------------------------------|
D----------------2--2-2-2--2-2-|-----------------------0--0-0-|
A------------------------------|--2--2-2-2--2-2-4--4-4--------|
E--3--3-3-3--3-3---------------|------------------------------|


                                                              
G------------------------------|------------------------------|
D----------------2--2-2-2--2-2-|------------------------------|
A------------------------------|--2--2-2-2--2-2-2--2-2-2--2-2-|
E--3--3-3-3--3-3---------------|------------------------------|


                                                              
G------------------------------|------------------------------|
D------------------------------|------------------------------|
A--2--2-2-2--2-2-2--2-2-2------|------------------------------|
E--------------------------3-3-|--3--3-3-3--3-3-3--3-3-3--3-3-|


                                                              
G------------------------------|------------------------------|
D------------------------------|------------------------------|
A------------------------------|------------------------------|
E--3--3-3-3--3-3-3--3-3-3--0-0-|--0--0-0-0--0-0-0--0-0-0--0-0-|


                                                              
G------------------------------|------------------------------|
D------------------------------|------------------------------|
A------------------------------|------------------------------|
E--0--0-0-0--0-0-0--0-0-0--2-2-|--2--2-2-2--2-2-2--2-2-2--2-2-|


                                                              
G------------------------------|------------------------------|
D------------------------------|------------------------------|
A------------------------------|--2--2-2-2--2-2-2--2-2-2--2-2-|
E--2--2-2-2--2-2-2--2-2-2--2-2-|------------------------------|


                                                              
G------------------------------|------------------------------|
D------------------------------|------------------------------|
A--2--2-2-2--2-2-2--2-2-2------|------------------------------|
E--------------------------3-3-|--3--3-3-3--3-3-3--3-3-3--3-3-|


                                                              
G------------------------------|------------------------------|
D------------------------------|------------------------------|
A------------------------------|------------------------------|
E--3--3-3-3--3-3-3--3-3-3--0-0-|--0--0-0-0--0-0-0--0-0-0--0-0-|


                                                              
G------------------------------|------------------------------|
D------------------------------|------------------------------|
A------------------------------|------------------------------|
E--0--0-0-0--0-0-0--0-0-0--2-2-|--2--2-2-2--2-2-2--2-2-2--2-2-|


                                                              
G------------------------------|------------------------------|
D------------------------------|------------------------------|
A------------------------------|--2--2-2-2--2-2-2--2-2-2--2-2-|
E--2--2-2-2--2-2-2--2-2-2--2-2-|------------------------------|


                                                            
G-----------------------------|-----------------------------|
D-----------------------------|-----------------------------|
A--2--2-2-2--2-2-2--2-2-2-----|-----------------------------|
E--------------------------3--|----3-3-3--3-3-3--3-3-3--3-3-|


                                                            
G-----------------------------|-----------------------------|
D-----------------------------|-----------------------------|
A-----------------------------|-----------------------------|
E--3--3-3-3--3-3-3--3-3-3--0--|----0-0-0--0-0-0--0-0-0--0-0-|


                                                            
G-----------------------------|-----------------------------|
D-----------------------------|-----------------------------|
A-----------------------------|-----------------------------|
E--0--0-0-0--0-0-0--0-0-0--2--|----2-2-2--2-2-2--2-2-2--2-2-|


                                                            
G-----------------------------|-----------------------------|
D-----------------------------|-----------------------------|
A--------------------------2--|----2-2-2--2-2-2--2-2-2--2-2-|
E--2--2-2-2--2-2-2--2-2-2-----|-----------------------------|


                                                            
G-----------------------------|-----------------------------|
D-----------------------------|-----------------------------|
A--2--2-2-2--2-2-2--2-2-2-----|-----------------------------|
E--------------------------3--|----3-3-3--3-3-3--3-3-3--3-3-|


                                                            
G-----------------------------|-----------------------------|
D-----------------------------|-----------------------------|
A-----------------------------|-----------------------------|
E--3--3-3-3--3-3-3--3-3-3--0--|----0-0-0--0-0-0--0-0-0--0-0-|


                                                            
G-----------------------------|-----------------------------|
D-----------------------------|-----------------------------|
A-----------------------------|-----------------------------|
E--0--0-0-0--0-0-0--0-0-0--2--|----2-2-2--2-2-2--2-2-2--2-2-|


                                                              
G------------------------------|------------------------------|
D------------------------------|-----4-4-4--2-2-2--0-0-0------|
A------------------------------|--2-----------------------4-4-|
E--2--2-2-2--2-2-2--2-2-2--2-2-|------------------------------|


                                                              
G------------------------------|------------------------------|
D-------------------0-0-0--0-0-|-----0-0-0--------------------|
A--4--2-2-2--4-4-4-------------|------------4-4-4--2-2-2--0-0-|
E------------------------------|--3---------------------------|


                                                              
G------------------------------|-----4-4-4--2-2-2--0-0-0------|
D------------------------------|--2-----------------------4-4-|
A--0---------------------------|------------------------------|
E-----3-3-3--2-2-2--3-3-3--3-3-|------------------------------|


                                                              
G-------------------0-0-0--0-0-|------------------------------|
D--4--2-2-2--4-4-4-------------|-----4-4-4--2-2-2--0-0-0------|
A------------------------------|--2-----------------------4-4-|
E------------------------------|------------------------------|


                                                              
G------------------------------|------------------------------|
D-------------------0-0-0--0-0-|-----4-4-4--2-2-2--0-0-0------|
A--4--2-2-2--4-4-4-------------|--2-----------------------4-4-|
E------------------------------|------------------------------|


                                                              
G------------------------------|------------------------------|
D-------------------0-0-0--0-0-|-----0-0-0--------------------|
A--4--2-2-2--4-4-4-------------|------------4-4-4--2-2-2--0-0-|
E------------------------------|--3---------------------------|


                                                              
G------------------------------|-----4-4-4--2-2-2--0-0-0------|
D------------------------------|--2-----------------------4-4-|
A--0---------------------------|------------------------------|
E-----3-3-3--2-2-2--3-3-3--3-3-|------------------------------|


                                                              
G-------------------0-0-0--0-0-|------------------------------|
D--4--2-2-2--4-4-4-------------|-----4-4-4--2-2-2--0-0-0------|
A------------------------------|--2-----------------------4-4-|
E------------------------------|------------------------------|


                                                              
G------------------------------|------------------------------|
D-------------------0-0-0--0-0-|--2--2-2-2--2-2-2--2-2-2--2-2-|
A--4--2-2-2--4-4-4-------------|------------------------------|
E------------------------------|------------------------------|


                                                              
G--0--0-0-0--0-0---------------|------------------------------|
D------------------------------|------------------------------|
A----------------3--3-3-3--3-3-|--0--0-0-0--0-0-0--0-0-0--0-0-|
E------------------------------|------------------------------|


                                                              
G----------------0--0-0-0--0-0-|------------------------------|
D------------------------------|--2--2-2-2--2-2-2--2-2-2--2-2-|
A--3--3-3-3--3-3---------------|------------------------------|
E------------------------------|------------------------------|


                                                              
G--0--0-0-0--0-0---------------|------------------------------|
D------------------------------|--0--0-0-0--0-0-0--0-0-0--0-0-|
A----------------3--3-3-3--3-3-|------------------------------|
E------------------------------|------------------------------|


                                                              
G------------------------------|------------------------------|
D------------------------------|--2--2-2-2--2-2-2--2-2-2--2-2-|
A----------------0--0-0-0--0-0-|------------------------------|
E--3--3-3-3--3-3---------------|------------------------------|


                                                              
G--0--0-0-0--0-0---------------|------------------------------|
D------------------------------|------------------------------|
A----------------3--3-3-3--3-3-|--0--0-0-0--0-0-0--0-0-0--0-0-|
E------------------------------|------------------------------|


                                                              
G------------------------------|------------------------------|
D------------------------------|--2--2-2-2--2-2-2--2-2-2--2-2-|
A--3--3-3-3--3-3---------------|------------------------------|
E----------------3--3-3-3--3-3-|------------------------------|


                                                              
G--0--0-0-0--0-0---------------|------------------------------|
D------------------------------|--0--0-0-0--0-0-0--0-0-0--0-0-|
A----------------3--3-3-3--3-3-|------------------------------|
E------------------------------|------------------------------|


                                                              
G------------------------------|------------------------------|
D------------------------------|--2--2-2-2--2-2-2--2-2-2--2-2-|
A----------------0--0-0-0--0-0-|------------------------------|
E--3--3-3-3--3-3---------------|------------------------------|


                                                              
G--0--0-0-0--0-0---------------|------------------------------|
D------------------------------|------------------------------|
A----------------3--3-3-3--3-3-|--0--0-0-0--0-0-0--0-0-0--0-0-|
E------------------------------|------------------------------|


                                                              
G------------------------------|------------------------------|
D------------------------------|--2--2-2-2--2-2-2--2-2-2--2-2-|
A--3--3-3-3--3-3---------------|------------------------------|
E----------------3--3-3-3--3-3-|------------------------------|


                                                              
G--0--0-0-0--0-0---------------|------------------------------|
D------------------------------|--0--0-0-0--0-0-0--0-0-0--0-0-|
A----------------3--3-3-3--3-3-|------------------------------|
E------------------------------|------------------------------|


                                                              
G------------------------------|------------------------------|
D------------------------------|--2--2-2-2--2-2-2--2-2-2--2-2-|
A----------------0--0-0-0--0-0-|------------------------------|
E--3--3-3-3--3-3---------------|------------------------------|


                                                              
G--0--0-0-0--0-0---------------|------------------------------|
D------------------------------|------------------------------|
A----------------3--3-3-3--3-3-|--0--0-0-0--0-0-0--0-0-0--0-0-|
E------------------------------|------------------------------|


                                                              
G------------------------------|------------------------------|
D------------------------------|--2--2-2-2--2-2-2--2-2-2--2-2-|
A--3--3-3-3--3-3---------------|------------------------------|
E----------------3--3-3-3--3-3-|------------------------------|


                                                              
G--0--0-0-0--0-0---------------|------------------------------|
D------------------------------|--0--0-0-0--0-0-0--0-0-0--0-0-|
A----------------3--3-3-3--3-3-|------------------------------|
E------------------------------|------------------------------|


                                                              
G------------------------------|------------------------------|
D------------------------------|------------------------------|
A----------------0--0-0-0--0-0-|------------------------------|
E--3--3-3-3--3-3---------------|--3--3-3-3--3-3-3--3-3-3--3-3-|


                                                              
G------------------------------|------------------------------|
D------------------------------|------------------------------|
A--0--0-0-0--0-0-0--0-0-0--0-0-|------------------------------|
E------------------------------|--3--3-3-3--3-3-3--3-3-3--3-3-|


                                                              
G------------------------------|------------------------------|
D------------------------------|------------------------------|
A--0--0-0-0--0-0-0--0-0-0--0-0-|------------------------------|
E------------------------------|--3--3-3-3--3-3-3--3-3-3--3-3-|


                                                              
G------------------------------|------------------------------|
D------------------------------|-----------------------0--0-0-|
A--0--0-0-0--0-0-0--0-0-0--0-0-|--2--2-2-2--2-2-4--4-4--------|
E------------------------------|------------------------------|


                                                              
G------------------------------|------------------------------|
D----------------2--2-2-2--2-2-|-----------------------0--0-0-|
A------------------------------|--2--2-2-2--2-2-4--4-4--------|
E--3--3-3-3--3-3---------------|------------------------------|


                                                              
G------------------------------|------------------------------|
D----------------2--2-2-2--2-2-|-----------------------0--0-0-|
A------------------------------|--2--2-2-2--2-2-4--4-4--------|
E--3--3-3-3--3-3---------------|------------------------------|


                                                              
G------------------------------|------------------------------|
D----------------2--2-2-2--2-2-|-----------------------0--0-0-|
A------------------------------|--2--2-2-2--2-2-4--4-4--------|
E--3--3-3-3--3-3---------------|------------------------------|


                                                     
G---------------------|------------------------------|
D---------------------|------------------------------|
A---------------------|--2--2-2-2--2-2-2--2-2-2--2-2-|
E--3--3--3------------|------------------------------|


                                                              
G------------------------------|------------------------------|
D------------------------------|------------------------------|
A--2--2-2-2--2-2-2--2-2-2------|------------------------------|
E--------------------------3-3-|--3--3-3-3--3-3-3--3-3-3--3-3-|


                                                              
G------------------------------|------------------------------|
D------------------------------|------------------------------|
A------------------------------|------------------------------|
E--3--3-3-3--3-3-3--3-3-3--0-0-|--0--0-0-0--0-0-0--0-0-0--0-0-|


                                                              
G------------------------------|------------------------------|
D------------------------------|------------------------------|
A------------------------------|------------------------------|
E--0--0-0-0--0-0-0--0-0-0--2-2-|--2--2-2-2--2-2-2--2-2-2--2-2-|


                                                              
G------------------------------|------------------------------|
D------------------------------|------------------------------|
A------------------------------|--2--2-2-2--2-2-2--2-2-2--2-2-|
E--2--2-2-2--2-2-2--2-2-2--2-2-|------------------------------|


                                                              
G------------------------------|------------------------------|
D------------------------------|------------------------------|
A--2--2-2-2--2-2-2--2-2-2------|------------------------------|
E--------------------------3-3-|--3--3-3-3--3-3-3--3-3-3--3-3-|


                                                              
G------------------------------|------------------------------|
D------------------------------|------------------------------|
A------------------------------|------------------------------|
E--3--3-3-3--3-3-3--3-3-3--0-0-|--0--0-0-0--0-0-0--0-0-0--0-0-|


                                                              
G------------------------------|------------------------------|
D------------------------------|------------------------------|
A------------------------------|------------------------------|
E--0--0-0-0--0-0-0--0-0-0--2-2-|--2--2-2-2--2-2-2--2-2-2--2-2-|


                                                              
G------------------------------|------------------------------|
D------------------------------|------------------------------|
A------------------------------|--2--2-2-2--2-2-2--2-2-2--2-2-|
E--2--2-2-2--2-2-2--2-2-2--2-2-|------------------------------|


                                                              
G------------------------------|------------------------------|
D------------------------------|------------------------------|
A--2--2-2-2--2-2-2--2-2-2--2-2-|------------------------------|
E------------------------------|--3--3-3-3--3-3-3--3-3-3--3-3-|


                                                              
G------------------------------|------------------------------|
D------------------------------|--2--2-2-2--2-2-2--2-2-2--2-2-|
A------------------------------|------------------------------|
E--3--3-3-3--3-3-3--3-3-3--3-3-|------------------------------|


                                                              
G------------------------------|------------------------------|
D--2--2-2-2--2-2-2--2-2-2--2-2-|--4--4-4-4--4-4-4--4-4-4--4-4-|
A------------------------------|------------------------------|
E------------------------------|------------------------------|


                                                              
G------------------------------|------------------------------|
D--4--4-4-4--4-4-4--4-4-4--4-4-|------------------------------|
A------------------------------|--2--2-2-2--2-2-2--2-2-2--2-2-|
E------------------------------|------------------------------|


                                                              
G------------------------------|------------------------------|
D------------------------------|------------------------------|
A--2--2-2-2--2-2-2--2-2-2--2-2-|------------------------------|
E------------------------------|--3--3-3-3--3-3-3--3-3-3--3-3-|


                                                              
G------------------------------|------------------------------|
D------------------------------|--2--2-2-2--2-2-2--2-2-2--2-2-|
A------------------------------|------------------------------|
E--3--3-3-3--3-3-3--3-3-3--3-3-|------------------------------|


                                                              
G------------------------------|------------------------------|
D--2--2-2-2--2-2-2--2-2-2--2-2-|--4--4-4-4--4-4-4--4-4-4--4-4-|
A------------------------------|------------------------------|
E------------------------------|------------------------------|


                                                            
G-----------------------------|-----------------------------|
D--4--4-4-4--4-4-4--4-4-4-----|-----------------------------|
A--------------------------2--|----2-2-2--2-2-2--2-2-2--2-2-|
E-----------------------------|-----------------------------|


                                                            
G-----------------------------|-----------------------------|
D-----------------------------|-----------------------------|
A--2--2-2-2--2-2-2--2-2-2-----|-----------------------------|
E--------------------------3--|----3-3-3--3-3-3--3-3-3--3-3-|


                                                            
G-----------------------------|-----------------------------|
D--------------------------2--|----2-2-2--2-2-2--2-2-2--2-2-|
A-----------------------------|-----------------------------|
E--3--3-3-3--3-3-3--3-3-3-----|-----------------------------|


                                                            
G-----------------------------|-----------------------------|
D--2--2-2-2--2-2-2--2-2-2--4--|----4-4-4--4-4-4--4-4-4--4-4-|
A-----------------------------|-----------------------------|
E-----------------------------|-----------------------------|


                                                            
G-----------------------------|-----------------------------|
D--4--4-4-4--4-4-4--4-4-4-----|-----------------------------|
A--------------------------2--|----2-2-2--2-2-2--2-2-2--2-2-|
E-----------------------------|-----------------------------|


                                                            
G-----------------------------|-----------------------------|
D-----------------------------|-----------------------------|
A--2--2-2-2--2-2-2--2-2-2-----|-----------------------------|
E--------------------------3--|----3-3-3--3-3-3--3-3-3--3-3-|


                                                            
G-----------------------------|-----------------------------|
D--------------------------2--|----2-2-2--2-2-2--2-2-2--2-2-|
A-----------------------------|-----------------------------|
E--3--3-3-3--3-3-3--3-3-3-----|-----------------------------|


                                                            
G-----------------------------|-----------------------------|
D--2--2-2-2--2-2-2--2-2-2--4--|----4-4-4--4-4-4--4-4-4--4-4-|
A-----------------------------|-----------------------------|
E-----------------------------|-----------------------------|


                                                              
G------------------------------|------------------------------|
D--4--4-4-4--4-4-4--4-4-4--4-4-|------------------------------|
A------------------------------|--2--2-2-2--2-2-2--2-2-2--2-2-|
E------------------------------|------------------------------|


                                                              
G------------------------------|------------------------------|
D------------------------------|------------------------------|
A--2--2-2-2--2-2-2--2-2-2------|------------------------------|
E--------------------------3-3-|--3--3-3-3--3-3-3--3-3-3--3-3-|


                                                              
G------------------------------|------------------------------|
D------------------------------|------------------------------|
A------------------------------|------------------------------|
E--3--3-3-3--3-3-3--3-3-3--0-0-|--0--0-0-0--0-0-0--0-0-0--0-0-|


                                                              
G------------------------------|------------------------------|
D------------------------------|------------------------------|
A------------------------------|------------------------------|
E--0--0-0-0--0-0-0--0-0-0--2-2-|--2--2-2-2--2-2-2--2-2-2--2-2-|


                                                              
G------------------------------|------------------------------|
D------------------------------|------------------------------|
A------------------------------|--2--2-2-2--2-2-2--2-2-2--2-2-|
E--2--2-2-2--2-2-2--2-2-2--2-2-|------------------------------|


                                                              
G------------------------------|------------------------------|
D------------------------------|------------------------------|
A--2--2-2-2--2-2-2--2-2-2------|------------------------------|
E--------------------------3-3-|--3--3-3-3--3-3-3--3-3-3--3-3-|


                                                              
G------------------------------|------------------------------|
D------------------------------|------------------------------|
A------------------------------|------------------------------|
E--3--3-3-3--3-3-3--3-3-3--0-0-|--0--0-0-0--0-0-0--0-0-0--0-0-|


                                                              
G------------------------------|------------------------------|
D------------------------------|------------------------------|
A------------------------------|------------------------------|
E--0--0-0-0--0-0-0--0-0-0--2-2-|--2--2-2-2--2-2-2--2-2-2--2-2-|


                                                              
G------------------------------|------------------------------|
D------------------------------|------------------------------|
A------------------------------|--2--2-2-2--2-2-2--2-2-2--2-2-|
E--2--2-2-2--2-2-2--2-2-2--2-2-|------------------------------|


                                                              
G------------------------------|------------------------------|
D------------------------------|------------------------------|
A--2--2-2-2--2-2-2--2-2-2------|------------------------------|
E--------------------------3-3-|--3--3-3-3--3-3-3--3-3-3--3-3-|


                                                              
G------------------------------|------------------------------|
D------------------------------|------------------------------|
A------------------------------|------------------------------|
E--3--3-3-3--3-3-3--3-3-3--0-0-|--0--0-0-0--0-0-0--0-0-0--0-0-|


                                                              
G------------------------------|------------------------------|
D------------------------------|------------------------------|
A------------------------------|------------------------------|
E--0--0-0-0--0-0-0--0-0-0--2-2-|--2--2-2-2--2-2-2--2-2-2--2-2-|


                                                    
G------------------------------|-------------------|
D------------------------------|-------------------|
A------------------------------|--2----------------|
E--2--2-2-2--2-2-2--2-2-2--2-2-|-------------------|


End.
  development and support by
dmitry ivanov