rock
 
|tablatures   |lyrics   |discussion forums   |more tabs @ XGuitar.com

Iron Maiden tabs

Weekend Warrior bass tab

IRON MAIDEN
WEEKEND WARRIOR
BASSTAB
TABBED BY ENDEMICBASS666

(Guitar Refrain)
(e-------------------------)
(B-------------------------)
(G------0-------0----------)
(D--7-----4-------5-----7--)
(A----7-------5-------5-5--)
(E-------------------------)
the bass starts to play in the

Verse:

G--2--------------------------5-5-----|
D--2--------4---------5-5-----5-5-----|
A--0-0-0-0--4---------5-5-----3-3-----| x6
E-----------2-2-2-2---3-3-------------|

REST in the Guitar Refrain

repeat verse

REST in the G.R.

Chorus (x2):

G-------------7------------2-----------9----------|
D--3----------7------------2-----------9----------|
A--3----------5-5-5-5-5----0-0-0-0-0---7-7-7-7-7--|
E--1-1-1-1-1--------------------------------------|


G-------------7-----------------------------|
D--3----------7--------------5--5-4---5--4--|
A--3----------5-5-5-5-5------3--3-2---3--2--|
E--1-1-1-1-1--------------------------------|

G-------------7------------2-----------9----------|
D--3----------7------------2-----------9----------|
A--3----------5-5-5-5-5----0-0-0-0-0---7-7-7-7-7--|
E--1-1-1-1-1--------------------------------------|


G-------------7----------2-------------|
D--3----------7----------2-------------|
A--3----------5-5-5-5-5--0-0-0-0-0-----|
E--1-1-1-1-1---------------------------|


repeat verse


REST in the G.R.


repeat chorus


Guitar Solo 1 (x2):

G-----------------------------------------------------|
D--7-7-7-7---5-5-5-5---5-4---2-2-2-2---2-2-2-2--2--5--|
A--5-5-5-5---3-3-3-3---3-2---0-0-0-0---0-0-0-0--0--3--|
E-----------------------------------------------------|


G-----------------------------------------------------|
D--7-7-7-7---5-5-5-5---5-4-------------------------5--|
A--5-5-5-5---3-3-3-3---3-2---5-5-5-5---5-5-5-5--5--3--|
E----------------------------3-3-3-3---3-3-3-3--3-----|

Guitar Solo 2 (x2):

G-----------------------------------|--------------9--------|
D-----------------------------------|--------------9--------|
A--3-3-3-3-3-3-3-3-3-3-3-3-3-3-3-3--|--------------7--------|
E-----------------------------------|--0-0-0-0--------------|


G-----------------------------------|-----------9--------|
D-----------------------------------|--2--------7--------|
A--3-3-3-3-3-3-3-3-3-3-3-3-3-3-3-3--|--2-----------------|
E-----------------------------------|--0-----------------|

repeat Guitar solo 1

repeat guitar solo 2


Guitar Solo 3 (x2):

G--2---7------|--2---7-----7-7--5--|
D--2---7------|--2---7-----7-7--5--|
A--0---5------|--0---5-----5-5--3--|
E-------------|--------------------|


repeat verse


REST in the G.R.


repeat chorus


REST in the G.R.


end.


TABBED BY  ENDEMICBASS666


UP THE IRONS ! ! !
  development and support by
dmitry ivanov