rock
 
|tablatures   |lyrics   |discussion forums   |more tabs @ XGuitar.com

Iron Maiden tabs

Virus bass tab

				VIRUS by Iron Maiden-Best of the Beast
				-----
			Harris, Gers, Murray, Bayley

			Transcribed by Andreas Blomqvist, Sweden

riff 1
  Thereīs an evil virus threatening mankind
G||-------(11)--------(14)-------(11)---------(14)-|
D||----(9)--------(12)--------(9)---------(12)-----|
A||--7---------10-----------7----------10----------|
E||------------------------------------------------|

  |-------(11)--------(14)------(11)--------(14)-||
  |----(9)--------(12)-------(9)--------(12)-----||
  |--7---------10----------7---------10----------||
  |----------------------------------------------||

Play five times

riff 2
   Rape of the mind is a social disorder
G||------------------------------------||
D||------------------------------------||
A||--3--3-3---3--3-----3--3-3----3-3-5-||
E||------------------------------------||
 
   play two times

repeat all of the above


then play riff 1 twice  riff 2 twice and then riff 1 two times
then play

riff 3
G||---------------------------------------------------------------------|
D||---------------------------------------------------------------------|
A||--7-7-7-7-7-7-7-7--7-7-7-7-7-7-7-7--3-3-3-3-3-3-3-3--3-3-3-3-3-3-3-3-|
E||---------------------------------------------------------------------|

  |---------------------------------------------------------------------|
  |------------------------------------5-5-5-5-5-5-5-5------------------|
  |--5-5-5-5-5-5-5-5--5-5-5-5-5-5-5-5-------------------5-5-5-5-5-5-5-5-|
  |---------------------------------------------------------------------|

play this twice

riff 4
     When every good things laid to   waste with all the jealousy and 
G||---------------------------------------------------------------------|
D||---------------------------------------------------------------------|
A||--7-7-7-7-7-7-7-7--7-7-7-7-7-7-7-7--3-3-3-3-3-3-3-3--3-3-3-3-3-3-3-3-|
E||---------------------------------------------------------------------|

     hate       by all the acid wit and rapier          lies
  |----------------------------------------------------------------------||
  |-------------------------------------5-5-5-5-5-5-5-5------------------||
  |--5-5-5-5-5-5-5-5--5-5-5-5-5-5-5-5-------------------5-5-5-5----------||
  |--------------------------------------------------------------5-5-5-5-||

play this twice

riff 5
		     All   in    your mind	      all   in    your
G||-------------------------------------------------------------------|
D||------------------5-5-5-4-4-4----------------------5-5-5-4-4-4-----|
A||--7-7-7-7-7-7-7-7-------------5-5--3-3-3-3-3-3-3-3-------------5-5-|
E||-------------------------------------------------------------------|

     head            try   to     relate               it
  |--------------------------------------------------------------------||
  |------------------5-5-5-4-4-4---------------------------7-7-5-5-4-4-||
  |--7-7-7-7-7-7-7-7-------------5-5--3-3-3-3-3-3-3-3--5-5-------------||
  |--------------------------------------------------------------------||

play riff 5 twice

now play riff 4 two times and then riff 5 twice
but on the last time you play riff 5 you play it like this
to cross over to riff 6

riff 5  (last time)
G||-------------------------------------------------------------------|
D||------------------5-5-5-4-4-4----------------------5-5-5-4-4-4-----|
A||--7-7-7-7-7-7-7-7-------------5-5--3-3-3-3-3-3-3-3-------------5-5-|
E||-------------------------------------------------------------------|

  |-------------------------------------------------||
  |----------------5-5-5-4-4-4----------------------||
  |--7-7-7-7-7-7-7-------------5-5--3-3-3-3-3-3-3-3-||
  |-------------------------------------------------||


riff 6
G||----------------------------------------------------------------|
D||----------------------------------------------------------------|
A||--5--5--5--5-5-5--5-5--3--3--3--3-3-3--3-3--7--7--7--7-7-7--7-7-|
E||----------------------------------------------------------------|

  |----------------------||
  |----------------------||
  |--5--5--5--5-5-5--5-5-||
  |----------------------||

play this ten(?) times

and then riff 6 four more times during the "rats in the cellar" part

finally you play this

outro
     Watching beginnings of social decay
G||-------(11)--------(14)-------(11)--------(14)-------(11)--------(14)-||
D||----(9)--------(12)--------(9)--------(12)--------(9)--------(12)-----||
A||--7---------10-----------7---------10-----------7---------10----------||
E||----------------------------------------------------------------------||

 thatīs all (I think)


Check out my full virus guitar tab aswell. CHEERS!!

SWEDEN, LAND OF THE VIKINGS AND METAL-HEADS
  development and support by
dmitry ivanov