rock
 
|tablatures   |lyrics   |discussion forums   |more tabs @ XGuitar.com

Iron Maiden tabs

Twilight Zone bass tab

Band: Iron Maiden
 Album: Killers
 Song: Twilight Zone
Tabbed by Teemu "T2k5" Aulanko (t2k5@mbnet.fi)
 

 |Intro| 
|--------------------------------|--------------------------------|
|--------------------------------|3-5-5-5-5-5-5-4-3-2-1-0---------|
|0---3-5-5-0---3---0---3-5-5-0---|--------------------------------|
|--------------------------------|--------------------------------|

 |Riff.1|    
|------------this x3-------------|-----then this------------------|
|----7---5---4---5---4---5-4-2-4-|----7---5---4---5-4-2-----------|
|0-0---0---0---0---0---0---------|0-0---0---0---0-------3----5----|
|--------------------------------|--------------------------------|

 |Riff.2| (verse)x4
|--------------------------------|--------------------------------|
|----7---5---4---5---4---5-7-----|----7---5---4---5-4-2-3-5-5-5-5-|
|0-0---0---0---0---0---0---------|0-0---0---0---0-----------------|
|--------------------------------|--------------------------------|

 |Riff.3|Part.1| x2 (chorus) 
|--------------------------------|--------------------------------|
|------3---------3---------3-----|----3---------------------------|
|--------------------------------|--------0---0-0---0-0---0-3-----|
|1-1-1-----1-1-1-----1-1-1-----1-|1-1-----------------------------|

|--------------------------------|
|5-4-----------------------------|
|----5-3---5---------------------|
|--------------------------------|

 |Riff.3|Part.2|
|--------------------------------|--------------------------------|
|------3---------3---------3-----|----3---------5-4-3-------------|
|--------------------------------|--------0---0-------0---0-3---0-|
|1-1-1-----1-1-1-----1-1-1-----1-|1-1-----------------------------|

|--------------------------------|--------------------------------|
|----5-4-3-----------------------|--------------------------------|
|--0-------0---0-3---------------|--------------------------------|
|--------------------------------|3-3-3-3-3-3-3-3-3-3-3-3-3-3-3-3-|

|--------------------------------|
|2-------3-------5-------3-------|
|2-------3-------5-------3-------|
|0-------1-------3-------1-------|

 |Riff.4| (drum part before solo)
|--------------------------------|--------------------------------|
|5-5-5-4---5-5-5-4---5-5-5-4---5-|5-5-5-5-5-----------------------|
|--------------------------------|--------------------------------|
|--------------------------------|--------------------------------|
 
 |Riff.5p1| x3 solo
|--------------------------------|--------------------------------|
|------------------3-1-3---------|----------5-3-5-----------------|
|0---0-0---0-0---0-------2---2-2-|--2-2---2-------3---3-3---3-3---|
|--------------------------------|--------------------------------|

|--------------------------------|
|--6-4-6-------------------5-0-5-|
|3-------5---5-5---5-5---5-------|
|--------------------------------|
 
 |Riff.5p2| solo end
|--------------------------------|--------------------------------|
|------------------3-1-3---------|----------5-3-5-----------------|
|0---0-0---0-0---0-------2---2-2-|--2-2---2-------3---3-3---3-3---|
|--------------------------------|--------------------------------|

|--------------------------------|
|--6-4-6-7-5---------------------|
|3-----------7-5-3-----2---3-2---|
|------------------5-3---3-----3-|

Then repeat 
|Intro|
|Riff.1|
|Riff.2|x4
|Riff.3|

|End|
|--------------------------------|--------------------------------|
|7-5-----------------------------|--------------------------------|
|----7-5-3-----2---3-2-----------|--------------------------------|
|----------5-3---3-----3---------|--------------------------------|
  development and support by
dmitry ivanov