rock
 
|tablatures   |lyrics   |discussion forums   |more tabs @ XGuitar.com

Iron Maiden tabs

The Thin Line Between Love And Hate guitar tab

Author/Artist: Iron Maiden
Title: the thin line between love & hate
Album: Brave New World
Transcribed by:jehad haddad
Email: jehad101@yahoo.com


intro:
GTR1:PLAY IT TWICE
e|------------------------------------------------------------------------------
B|-v------------------------v------------------------v--------------------------
G|------------------------------------------------------------------------------
D|------------------------------------------------------------------------------
A|-----77----55----77-----------55----33----55-------------12-12------10-10-----
E|-55----88----55----88-77--33----66----33----66-55--10-10------13-13------10-10

e|-----------------------------------------------------------------------------
B|-----------------v-----------------------------------------------------------
G|-----------------------------------------------------------------------------
D|-----------------------------------------------------------------------------
A|12-12---------------88------------88-----------------------------------------
E|-----13-13-12-12-66---10-10-88-66----10-10-88--------------------------------

v:time of 2nd gtr.

GTR2:PLAY IT TWICE
   Am         G        Dm        A#m
e|-----------------------------------------------------------------------------
B|-----------------------------------------------------------------------------
G|-----------------------------------------------------------------------------
D|--7---------5--------12---------8--------------------------------------------
A|--7---------5--------12---------8--------------------------------------------
E|--5---------3--------10---------6--------------------------------------------



 riff a:play this right before 1st verse.
e|-----------------------------------------------------------------------------
B|-----------------------------------------------------------------------------
G|-------------------------5/7-7-7---------------------------------------------
D|---5/7--7-77--7----------5/7-7-7---------------------------------------------
A|---5/7--7-77--7----------3/5-5-5-6-5-3---------------------------------------
E|---3/5--5-55--5-6-5-3--------------------------------------------------------



verse:play it 2 times
e|----------|-------------------------------------------------------------------
B|----------|-------------------------------------------------------------------
G|------7-7-|----------------------------10-10---12-12--------------------------
D|--7-7-7-7-|<-play 3 times-then play->--10-10---12-12--------------------------
A|--7-7-5-5-|-----------------------------8--8---10-10--------------------------
E|--5-5-----|-------------------------------------------------------------------




chorus:play it 4 times
gtr1:
e|-------------------------------------------------------------------------
B|-------------------------------------------------------------------------
G|-----(strum this chord 5 times)------------------------------------------
D|---7-10----5-10--9(strum this chord 4 times)-----------------------------
A|---7-10----5-10--9-------------------------------------------------------
E|---5--8----3--8--7-------------------------------------------------------

gtr2:
e|-----------------------------------------------------------------------------
B|-----------------------------------------------------------------------------
G|-5555555555555555555555555555555555555555555(ya ya thats it)-----------------
D|-----------------------------------------------------------------------------
A|-----------------------------------------------------------------------------
E|-----------------------------------------------------------------------------



play riff a as a rythem for 1,2 solos
then play this part 2 times with intro:
e|-----------------------------------------------------------------------------
B|-----------------------------------------------------------------------------
G|-----------------------------------------------------------------------------
D|---12h14-15h17p15\14-15-17-15~~--12h14-15h17p15\14-15-17-15~~----------------
A|-----------------------------------------------------------------------------
E|-----------------------------------------------------------------------------

e|-----------------------------------------------------------------------------
B|-----------------------------------------------------------------------------
G|-------------------------14~~------------------------------------------------
D|-12h14-15h17p15\14-15-17---------12h14-15h17p15\14-15-17-15~~----------------
A|-----------------------------------------------------------------------------
E|-----------------------------------------------------------------------------

then playthis part 2 times also whith intro:
e|-----------------------------------------------------------------------------
B|-----------------------------------------------------------------------------
G|--17171717-15-14----14-15-14~~-------17171717-15-14----14-15-14~~------------
D|-----------------17---------------------------------17-----------------------
A|-----------------------------------------------------------------------------
E|-----------------------------------------------------------------------------
and right hear comes the 3rd solo whith intro once again.

riff b:(right after the 3rd solo)
gtr1:(accoustic) comes first....

e|------3~------------------3~------------------3---3-----------------3---3------
B|------3~------------------3~------------------3--3-3----------------3--3-3-----
G|------0~------------------0~------------------0-0---0---------------0-0--------
D|----2------------------0--------------------2---------------------0---------0--
A|--0---------------------------------------0------------------------------------
E|---------------------3-------------------------------------------3-------------

........then comes gtr2:(electric)
e|-----------------------------------------------------------------------------
B|--12-13-15~~---15h17-15~~-13-12-13p12----------------------------------------
G|-------------------------------------12--------------------------------------
D|---------------------------------------12~~---12h14-12~~---------------------
A|-----------------------------------------------------------------------------
E|-----------------------------------------------------------------------------


e|-----------------------------------------------------------------------------
B|--12-13-15~~---15h17-15~~-13-12-13p12----------------------------------------
G|-------------------------------------12------12br~~-(bend half step then release)
D|---------------------------------------12~~----------------------------------
A|-----------------------------------------------------------------------------
E|-----------------------------------------------------------------------------


e|------3~------------------3~------------------3---3-----------------3---3------
B|------3~------------------3~------------------3--3-3----------------3--3-3-----
G|------0~------------------0~------------------0-0---0---------------0-0--------
D|----2------------------0--------------------2---------------------0---------0--
A|--0---------------------------------------0------------------------------------
E|---------------------3-------------------------------------------3-------------

riff c:play solo #4 over this :
e|-----------------------------------------------------------------------------
B|-----------------------------------------------------------------------------
G|-----------------------------------------------------------------------------
D|--7-77-7-7-7--101010---------5-55-5-5-5----5-5-5-----------------------------
A|--7-77-7-7-7--101010---------5-55-5-5-5----5-5-5-----------------------------
E|--5-55-5-5-5---8-8-8---------3-33-3-3-3----3-3-3-----------------------------


part d: play this part over riff c right after the 4th solo:
e|-----------------------------------------------------------------------------
B|-/131313-13p12-121212\10-101010-10h12-10-------------------------------------
G|-----------------------------------------12~---------------------------------
D|-----------------------------------------------------------------------------
A|-----------------------------------------------------------------------------
E|-----------------------------------------------------------------------------

e|-----------------------------------------------------------------------------
B|-/15-151515-15p13-131313-13p12-121212h13-12----------------------------------
G|--------------------------------------------14~------------------------------
D|-----------------------------------------------------------------------------
A|-----------------------------------------------------------------------------
E|-----------------------------------------------------------------------------

then play solo #5 over the same riff(c).
then go back & play part d over the same riff(c).
then play riff c alone.
outro:play riff b (both gtrs)



                                  the end


legend:

p:pull off
h:hammer on
b:bend
r:release
~:vibrato
/:slide up
\:slide down

thats it ,i dont think it has any errors but if u found some, or got any of the solos plz
e-mail me at :jehad101@yahoo.com
  development and support by
dmitry ivanov