rock
 
|tablatures   |lyrics   |discussion forums   |more tabs @ XGuitar.com

Iron Maiden tabs

The Prophecy bass tab

THE PROPHECY

As recorded by Iron Maiden
(From the 1988 Album SEVENTH SON OF A SEVENTH SON)

Transcribed by Omnicurse
E-mail any questions to Omnicurse@hotmail.com



   Intro
    Q=111
   3/4     5/4         3/4     5/4
    Gtr I
                                     6x
||--------|-----------|-------|------||
||o-------|-----------|-------|-----o||
||o-------|-----------|-------|-----o||
||--------|-----------|-------|------||


    Q.=92
   6/8
||----------------|---------------|---------------|---------2-----||
||o-----2-3-5-3-2-|-----2-3-2-----|-----2-3-5-3-2-|-------3---3--o||
||o-5-5-----------|-5-5-------3---|-5-5-----------|-5-3-0--------o||
||----------------|-------------5-|---------------|---------------||


 Verse 1
|-------------|-------------|-------------|------------------|
|-------------|-------------|-------------|------------------|
|-5-5-5-5-5---|-3-3-3-3-3---|-------------|-1-1-1-1-3-3-3-3--|
|-------------|-------------|-3-3-3-3-3---|------------------|


|-------------|-------------|-------------|------------------|
|-------------|-------------|-------------|------------------|
|-5-5-5-5-5---|-3-3-3-3-3---|-------------|-1-1-1-1-3-3-3-3--|
|-------------|-------------|-3-3-3-3-3---|------------------|


|-------------|-------------|-------------|------------------|
|-------------|-------------|-------------|------------------|
|-7-7-7-7-7---|-5-5-5-5-5---|-2-2-2-2-2---|-3-3-3-3-5-5-5-5--|
|-------------|-------------|-------------|------------------|


|-------------|-------------|-------------|------------------||
|-------------|-------------|-------------|------------------||
|-7-7-7-7-7---|-5-5-5-5-5---|-2-2-2-2-2---|-3-3-3-3-5-5-5-5--||
|-------------|-------------|-------------|------------------||


 Pre-Chorus
|-------------|------------|-------------|------------|
|-------------|------------|-------------|------------|
|-0-0-0-0-0---|-2-3-0-2--3-|-0-0-0-0-0---|-2-3-0-2--3-|
|-------------|------------|-------------|------------|


|-------------|------------|-------------|------------||
|-------------|------------|-------------|------------||
|-0-0-0-0-0---|-2-3-0-2--3-|-0-0-0-0-0---|-2-3-0-2--3-||
|-------------|------------|-------------|------------||


 Chorus
|-------------|-------------|-------------|-------------|
|-------------|-------------|-------------|-------------|
|-6-6-6-6-6---|-------------|-4-4-4-4-4---|-1-1-1-1-1---|
|-------------|-4-4-4-4-4---|-------------|-------------|


|-------------|-------------|-------------|-------------|
|-------------|-------------|-------------|-------------|
|-6-6-6-6-6---|-4-4-4-4-4---|-------------|-1-1-1-1-1---|
|-------------|-------------|-4-4-4-4-4---|-------------|


|-------------|-------------|-------------|-------------|
|-------------|-------------|-------------|-------------|
|-6-6-6-6-6---|-------------|-4-4-4-4-4---|-1-1-1-1-1---|
|-------------|-4-4-4-4-4---|-------------|-------------|


|-------------|-------------|---------------|---------------||
|-------------|-------------|---------------|---------------||
|-4-4-4-4-4-4-|-4-4-4-4-4-4-|-1-1-1-1-1-1-1-|-1-1-1-1-1-1-1-||
|-------------|-------------|---------------|---------------||


 Interlude
|-----------------|-----------------|-----------------|-9-9-9-9---------|
|---9-9-9---9-9-9-|---9-9-9---9-9-9-|---9-9-9---9-9-9-|---------9-7-----|
|-7-------7-------|-7-------7-------|-7-------7-------|-------------10--|
|-----------------|-----------------|-----------------|-----------------|


|-----------------|-----------------|-----------------|-9-9-9-9---------|
|---7-7-7---7-7-7-|---7-7-7---7-7-7-|---9-9-9---9-9-9-|---------9-7-----|
|-5-------5-------|-5-------5-------|-7-------7-------|-------------10--|
|-----------------|-----------------|-----------------|-----------------|


|-----------------|-----------------|-----------------|-9-9-9-9---------|
|---9-9-9---9-9-9-|---9-9-9---9-9-9-|---9-9-9---9-9-9-|---------9-7-----|
|-7-------7-------|-7-------7-------|-7-------7-------|-------------10--|
|-----------------|-----------------|-----------------|-----------------|


|-----------------|-----------------|-----------------|-9-9-9-9---------|
|---7-7-7---7-7-7-|---7-7-7---7-7-7-|---9-9-9---9-9-9-|---------9-7-----|
|-5-------5-------|-5-------5-------|-7-------7-------|-------------10--|
|-----------------|-----------------|-----------------|-----------------|


||------------------|-----------------|-----------------|------------------|
||o-----------------|-----------------|-----------------|---------7-7-7-7--|
||o-5-5-5-5-3-3-3-3-|-5-5-5-5-5-5-5-5-|-5-5-5-5-3-3-3-3-|-0-0-0-0----------|
||------------------|-----------------|-----------------|------------------|


                                                        1.
|-----------------|-----------------|-----------------|------------------||
|-----------------|---------8-8-8-8-|---------7-7-7-7-|-----------------o||
|-5-5-5-5-3-3-3-3-|-8-8-8-8---------|-5-5-5-5---------|-5-5-5-5-5-5-5-5-o||
|-----------------|-----------------|-----------------|------------------||


 Guitar Solo
  2.140
 4/4
|---------------|---------------|---------------|---------------|
|---------------|---------------|---------------|---------------|
|-5-5-5-5-5-5---|-5-5-5-5-5-5---|-3-3-3-3-3-3---|-5-5-5-5-5-5---|
|---------------|---------------|---------------|---------------|


|---------------|---------------|---------------|---------------|
|---------------|---------------|---------------|---------------|
|-5-5-5-5-5-5---|-5-5-5-5-5-5---|-3-3-3-3-3-3---|-5-5-5-5-5-5---|
|---------------|---------------|---------------|---------------|


|-----------------|-----------------|-----------------|-----------------|
|-----------------|-----------------|-----------------|-----------------|
|-----------------|-----------------|-----------------|-----------------|
|-5-5-5-5-5-5-5-5-|-6-6-6-6-6-6-6-6-|-3-3-3-3-3-3-3-3-|-5-5-5-5-5-5-5-5-|


|-----------------|-----------------|-----------------|-----------------|
|-----------------|-----------------|-----------------|-----------------|
|-----------------|-----------------|-----------------|-----------------|
|-5-5-5-5-5-5-5-5-|-6-6-6-6-6-6-6-6-|-3-3-3-3-3-3-3-3-|-5-5-5-5-5-5-5-5-|


  Q.=92
 6/8
|---------|-----------------|-----------------|
|---------|-----------------|---------5-5-5-5-|
|-5---3---|-----------------|-----------------|
|---------|-3-3-3-3-3-3-3-3-|-3-3-3-3---------|


|---------|-----------------|-----------------|
|---------|-----------------|-----------------|
|-5---3---|-0-0-0-0-0-0-0-0-|-0-0-0-0-0-0-0-0-|
|---------|-----------------|-----------------|


|-----------------|-------------------|
|-----------------|-7-7-7-7-7-7-7-7---|
|-0-0-0-0-0-0-0-0-|-------------------|
|-----------------|-------------------|


 Verse 2
|-------------|-------------|-------------|------------------|
|-------------|-------------|-------------|------------------|
|-5-5-5-5-5---|-3-3-3-3-3---|-------------|-1-1-1-1-3-3-3-3--|
|-------------|-------------|-3-3-3-3-3---|------------------|


|-------------|-------------|-------------|------------------|
|-------------|-------------|-------------|------------------|
|-5-5-5-5-5---|-3-3-3-3-3---|-------------|-1-1-1-1-3-3-3-3--|
|-------------|-------------|-3-3-3-3-3---|------------------|


|-------------|-------------|-------------|------------------|
|-------------|-------------|-------------|------------------|
|-7-7-7-7-7---|-5-5-5-5-5---|-2-2-2-2-2---|-3-3-3-3-5-5-5-5--|
|-------------|-------------|-------------|------------------|


|-------------|-------------|-------------|------------------||
|-------------|-------------|-------------|------------------||
|-7-7-7-7-7---|-5-5-5-5-5---|-2-2-2-2-2---|-3-3-3-3-5-5-5-5--||
|-------------|-------------|-------------|------------------||


 Pre-Chorus 2
|-------------|------------|-------------|------------|
|-------------|------------|-------------|------------|
|-0-0-0-0-0---|-2-3-0-2--3-|-0-0-0-0-0---|-2-3-0-2--3-|
|-------------|------------|-------------|------------|


|-------------|------------|-------------|------------||
|-------------|------------|-------------|------------||
|-0-0-0-0-0---|-2-3-0-2--3-|-0-0-0-0-0---|-2-3-0-2--3-||
|-------------|------------|-------------|------------||


 Chorus 2
|-------------|-------------|-------------|-------------|
|-------------|-------------|-------------|-------------|
|-6-6-6-6-6---|-------------|-4-4-4-4-4---|-1-1-1-1-1---|
|-------------|-4-4-4-4-4---|-------------|-------------|


|-------------|-------------|-------------|-------------|
|-------------|-------------|-------------|-------------|
|-6-6-6-6-6---|-4-4-4-4-4---|-------------|-1-1-1-1-1---|
|-------------|-------------|-4-4-4-4-4---|-------------|


|-------------|-------------|-------------|-------------|
|-------------|-------------|-------------|-------------|
|-6-6-6-6-6---|-------------|-4-4-4-4-4---|-1-1-1-1-1---|
|-------------|-4-4-4-4-4---|-------------|-------------|


|-------------|-------------|---------------|---------------||
|-------------|-------------|---------------|---------------||
|-4-4-4-4-4-4-|-4-4-4-4-4-4-|-1-1-1-1-1-1-1-|-1-1-1-1-1-1-1-||
|-------------|-------------|---------------|---------------||


|--------|--------|---------|--------|----------|--------*|
|-7------|-7------|-7-7-----|-7------|-(7)------|-(7)----*|
|-5------|-5------|-5-5-----|-5------|-(5)------|-(5)----*|
|--------|--------|---------|--------|----------|--------*|
  development and support by
dmitry ivanov