rock
 
|tablatures   |lyrics   |discussion forums   |more tabs @ XGuitar.com

Iron Maiden tabs

The Prisoner bass tab

Iron Maiden - The Prisoner, Bass tab by Tom Abell

INTRO (x2) 
G---------------------------------------------------------
D---------------------------------------------------------
A-------------------------5-------------------------------
E-----77757-------77757-------55535----22222--5-0---------

G---------------------------------------------------------
D---------------------------------------------------------
A-------------------------5-------------------------------
E-----77757-------77757-------55535----22222--3-5---------

VERSE
G-------------------------------------------------------
D-------------------------------------------------------
A----22222222-2--0------------2222222--55-44-0---------- 
E-------------------4-2-0-------------------------------

G-------------------------------------------------------
D-------------------------------------------------------
A---- 22222222-2-0--------------------------------------
E--------------------4-2-0---5555555-0000000------------

BRIDGE
G--------------------------------------------------------  (X4)
D----------------7-77775---------------------------------
A------------------------7-------------------------------
E------5-555-777-----------------------------------------

G---9999999-7-1010101010-7-9999999-7-1010101010-7-
D-------------------------------------------------
A-------------------------------------------------
E-------------------------------------------------

G------------------------------------------------------
D------------------------------------------------------
A----2222222-0-222222--2----2--------------------------
E------------------------0-----------------------------

CHORUS
G--------------9--------------9-----------9-------------------------
D-----------9----9----------9---9-------9---9-----------------------
A-------7-------------7------------7------------7--4444444-2222222--
E----7-------------------0-----------7------------------------------

G----------9------------9------------9------------------------------
D-------9----9--------9---9-------9----9----------------------------
A----7----------7------------7------------7---4444444-5555555-------
E------------------0------------7-----------------------------------
SOLO PART 1 (x2)
G---------------------------------------------------------
D---------------------------------------------------------
A-------------------------5-------------------------------
E-----77757-------77757-------55535----22222--5-0---------

G---------------------------------------------------------
D---------------------------------------------------------
A------------------------5--------------------------------
E-----77757-------77757-------55535----22222--3-5---------

SOLO PART 2
G----------------------------------------------------  
D----------------------------------------------------
A----- 5555555---------------------------------------
E--7>------------5555555555555555--2222222-555-000---

G----------------------------------------------------- 
D-----------------------------------------------------
A----- 5555555----------------------------------------
E--7>------------5555555555555555--2222222-33-55------

(7> means you play it 23 times)
  development and support by
dmitry ivanov