rock
 
|tablatures   |lyrics   |discussion forums   |more tabs @ XGuitar.com

Iron Maiden tabs

The Fugitive bass tab

IRON MAIDEN
THE FUGITIVE
BASSTAB
TABBED BY ENDEMICBASS666


Intro (x2):

G---------------------------|----------------------------|
D---------------------5-----|----------------------------|
A--5h7-7-7-7-7-7-7-7-----5--|-5h7-7-7-7-7-7-7-7--8-5-----|
E---------------------------|----------------------------|



G--------------------------|---------------------------------|
D---------------------5----|---------------------------------|
A--5h7-7-7-7-7-7-7-7----5--|-5h7-8-8-8--5-5-5--3-3-3--2-2-2--|
E--------------------------|---------------------------------|


fill:

G---------------------------------------------------------------|
D--------------------------------------5-5-5--------------------|
A--7-7-7-8-8-8-8-8-8-8-8---7-7-7-8-8-8-------8-8-8-7-7-7-8-8-8--| x2
E---------------------------------------------------------------|



repeat intro part


verse:

(x 2 without singing + x 4 on verse "on a cold October morning ... etc ..")

G--------------------------------------------------------|
D--------------------------------------------------------|
A--5-5-5-5-5-5--3-3-3-3-3-3---------------1-1-1-1-1-1----|
E----------------------------5-5-5-5-5-5-----------------|

G-----------------------------------------------------|
D-----------------------------------------------------|
A--1-1-1-1-1-1--3-3-3-3-3-3--5-5-5-5-5-5-5-5-5-5-5-5--|
E-----------------------------------------------------|

short bridge:

G---------------------|
D---------------------|
A----55555p5p5p5p5----|
E---------------------|
	(grow with the drums)


repeat verse (faster!)


repeat short bridge



chorus:

G--7-------5-5----5-5---2-2----3-----------|
D--7-------5-5----5-5---2-2----3-----------|
A--5-5-5-5-3-3----3-3---0-0----1-1-1-1-1---|
E------------------------------------------|



repeat verse

repeat short bridge



repeat chorus



repeat  verse  part under  guitar solo 1



repeat intro part

repeat fill
then



interlude:

G-|---------------------3--------|
D-|---------3-2-----3-5---5-3-5--|
A-|-3-0-3-5-----3-5--------------|  x4
E-|------------------------------|



guitar solo 2:

G-|-7--------------5--------------7------------|
D-|-7--------------3-3-3-3-3-3-3--5-5-5-5-5-5--|
A-|-5-5-5-5-5-5-5------------------------------|
E-|--------------------------------------------|



repeat verse

repeat short bridge



repeat chorus



repeat intro



ending note:

G--9---|
D--9---|
A--7/--|
E------|




TABBED BY ENDEMICBASS666


UP THE IRONS ! ! !
  development and support by
dmitry ivanov