rock
 
|tablatures   |lyrics   |discussion forums   |more tabs @ XGuitar.com

Iron Maiden tabs

The Evil That Men Do guitar tab

From: jfbertuc@ing.puc.cl (Bertucci Juan Francisco)


     TAB   THE EVIL THAT MEN DO-  FROM "SEVENTH SON OF A SEVENTH SON"
                      I R O N   M A I D E N.
    
    INTRO
    -----------------------------------------------------------------5b-3------
 T  -----------------------------------------------------------3h5p3-----------
 A  ---0---4-2-0-2-4-----0---4-2-0-2-4-------0---4-2-0-2-4-2-------------------
 B  -2---2-------------2---2-----------2---2---2-------------------------------
    ---------------------------------------------------------------------------
    ---------------------------------------------------------------------------

								...1,2,3,4...
    ---------------------------------------------------------------------------
    ---------------------------------------------------------------------------
    ---0---4-2-0-2-4-------0---4-2-0-2-4-----0---4-2-0-2-4---------------------
    -2---2-----------2---2---2-------------2---2------------2------------------
    ---------------------------------------------------------------------------
    ---------------------------------------------------------------------------

    
							(START VOCALS)
    /..........TWICE................................/  & /TWICE................
    ---------------------------------------------------------------------------
    ---------------------------------------------------------------------------
    -------------------------------------------------------/7times/------------
    -9--7--12--9--5--12--5--------5--12--11-12-11--9-----9--------------5------
    -7--5--10--7--5--10--3--3--3--3--10--9--10--9--7-----7--7-7-7---7-7-3------
    --------------------------------------------------------\_3_/---\_3_/------
			   /p.m./ 			   /p.m........../  


    .........................../ /....twice....................................
    ---------------------------------------------------------------------------
    ---------------------------------------------------------------------------
    /3times/------------------------/3times/------/3times/------/3times/-------
    --------------12-11-12-11-9---9-------------5---------/ 3 \--/ 3 \---------
    -3-3-3----3-3-10--9-10--9-7---7--7-7-7--7-7-3--3-3-3--3-3-5----------------
    -\_3_/----\_3__/-----------------\_3_/--\_3_/--\_3_/------3--3-3-3---------
    /p.m........./		    /p.m....../    /p.m...../	/p.m./	


    ............./ (no vocs. here)	    ** (pre-chorus...)
    --------------------------------------|----------------------
    --------------------------------------|----------------------
    --------------------5--4-2-------2----|-----0---4-2-0-2-4----
    ---------------5-----------5-4-5------|---2---2-----------2--
    ----------0-2--3-------------------3--|----------------------
    -3-3--2-3-----------------------------|----------------------
    /p.m/


    					    /2nd. & 3rd. time skip to @
    ------------------------------------------------------------
    ----------------------------------------------0-1-3-5-5b----
    ---0---4-2-0-2-0-------0---4-2-0-2-4------0-2---------------
    -2---2-----------4---2---2-----------2----------------------
    ------------------------------------------------------------
    ------------------------------------------------------------
    

								@
    ---------------------------------------------------------------------------
    ------------------------------------------------------------------0-1-3----
    ---0---4-2-0-2-4-------0---4-2-0-2-0-------0---4-2-0-2-4------0-2----------
    -2---2-----------2---2---2-----------4---2---2-----------2--4--------------
    ---------------------------------------------------------------------------
    ---------------------------------------------------------------------------


    \CHORUS;......twice.............\ 1. to &\ 2. .....................
    /twice.../       \twice.........\             \twice..............\
    ---------------------------------------------------------------------------
    ---------------------------------------------------------------------------
    -------------------------------------------4-------------------------4--4--
    -9-9-9-9---5--7---9-9-9-9---5--2-----------2---2--4h5p4h5p4h5p4-0-2--2--2--
    -7-7-7-7---3--5---7-7-7-7---3--0-------------------------------------------
    ---------------------------------------------------------------------------
    (ad lib )         (same...)               (RIFF #)
                                              (twice..........................)
                                               

         \twice............\           solo
    ---------------------------------|--14----14-16-17--16-14-12---
    ---------------------------------|-----------------------------
    ---------------------------9-9---|-----------------------------
    --5---7h9p7h9p7h9p7--4-5---------|-----------------------------
    ---------------------------------|-----------------------------
    ---------------------------------|-----------------------------
     (4 times.....................)




    -16-12----12---------------------------------------------------------12----
    -------12----12------------------------------------11-------10----10-------
    ----------------11--------------12-11-9-12-11-9-12------11-----11----------
    -------------------11---12-11-9--------------------------------------------
    ---------------------------------------------------------------------------
    ---------------------------------------------------------------------------




                  (twice.........)
    ------------------------12---------------12---------16-16-16--12----12--11-
    --10-9-10---------10-------12------10----------------------------12--------
    ----------9----11----11---------11----11-------9---------------------------
    ---------------------------------------------------------------------------
    ---------------------------------------------------------------------------
    ---------------------------------------------------------------------------



		                                                       end...  
    --------------------21--19-17-16-17-16--14-16--14h16p14--------------------
    --12----12----------------------------------------------14-12-10-----------
    -----11----11----------------------------------------------------13-11-12--
    --------------11-----------------------------------------------------------
    ---------------------------------------------------------------------------
    ---------------------------------------------------------------------------


    THEN:   **,CHORUS,RIFF #(1 TIME), THAT'S ALL!

	TAB EXPLAN.         


	      *b bend the * note
	      *h@ hammer from * to @
	      *p@ pull down ect.
	      \_3_| (how to write in english..)..."triad".


		O.K. 	Dedicated to Liz.

		jfbertuc@malloco.ing.puc.cl

		Send comments and corrections!



++++++++++++++++++ SOLO ++++++++++++++++++=

The evil that Men do guitar solo



e:--------------16b(17)-r16/14----------14-----------------------------------|
B:-17-17b(19)~------------------17~--------17-----17-------------------------|
G:--------------------------------------------16-----16----------------------|
D:------------------------------------------------------16-------------------|
A:---------------------------------------------------------14-gliss----------|
E:---------------------------------------------------------------------------|





e:---------------------------------------------------------------------------|
B:---------------------------------------------------------------------------|
G:------------------------------------------------11----10b(11)--13b(14)-----|
D:----------------------12/11-----------14/12--------------------------------|
A:12/11-----14--12--11---------14--12---------14-----------------------------|
E:-------14------------------------------------------------------------------|





e:----------12--------------------0----------------------12------------------|
B:--------------------------------trembar---------10--------10---------------|
G:-13b(14)------13b(14)--13b(14)---------------------10--------12b(13)-------|
D:----------------------------------------10b(11)----------------------------|
A:---------------------------------------------------------------------------|
E:---------------------------------------------------------------------------|





e:--------12-------------------12--12-----------------------16---------------|
B:--10-------10---------10--------------------------------------17-----17/16-|
G:-----10-------12b(13)----10-------------10b(11)---10b(11)---------16-------|
D:---------------------------------------------------------------------------|
A:---------------------------------------------------------------------------|
E:---------------------------------------------------------------------------|





e:-----------------19b(21)-19-17-16-17-----16/17/16-14-16--14/16/14----14----|
B:------------------------------------------------------------------17-------|
G:16-----14------------------------------------------------------------------|
D:----16----14---------------------------------------------------------------|
A:------------16-------------------------------------------------------------|
E:---------------------------------------------------------------------------|


                     
                     
                     
e:-------------------|
B:----17-14----------|
G:-----------16-14-12|
D:-------------------|
A:-------------------|
E:-------------------|
  development and support by
dmitry ivanov