rock
 
|tablatures   |lyrics   |discussion forums   |more tabs @ XGuitar.com

Iron Maiden tabs

The Educated Fool bass tab

THE EDUCATED FOOL *bass guitar tablature*

Iron Maiden
Virtual XI 1998 album
The Educated Fool
This is tabbed by Malcolm Bennett and Michael Bellinger->email-juanveron1987@hotmail.com

Great song! Deserves to be tabbed out!

Intro-

G|--------------------------------|
D|--9-9-9-9-9-9-9-9--5-5----------|
A|-7-7-7-7-7-7-7-7--3-3-3---------|x 4
E|------------------------3-3-3-5-|


(slow)"Im an Educated Fool...."

G|--------------------------------|
D|--9-9-9-9-9-9-9-9--5-5----------|
A|-7-7-7-7-7-7-7-7--3-3-3---------|
E|------------------------3-3-3-5-| x 4



"Open the page at chapter one...."

G|------------------------------------|
D|------------------------------------|
A|-7-7-x-7-x-7-7-7-7-3-3-x-3----------| x 2
E|--------------------------3-3-3-3-5-|

Verse-

"Never felt this way before...."

G|---------------------------------------------------|
D|---------------------------------------------------|
A|-7-7-x-x-7-7-x-x-7-7-x-x-7-7--3-3-x-3-3------------| x 4
E|----------------------------------------3--3-3-5-5-|

"I want to leave my life on my own...."

G|--------------------------------------------|
D|--------------------------------------------|
A|-7-7--7-7--7-7--7-7--7--3-3--3-3------------| x 4
E|---------------------------------3--3-3-3-5-|


Verse x 4


"I want to leave my life on my own...."

G|--------------------------------------------|
D|--------------------------------------------|
A|-7-7--7-7--7-7--7-7--7--3-3--3-3------------| x 4
E|---------------------------------3--3-3-3-5-|

Chorus-

  "Time will flow,    and I will follow...."
G|-9~---12~---5~--5-7--9~---12~---5~--7~-|
D|-9~---12~---5~--5-7--9~---12~---5~--7~-|
A|-7~---10~---3~--3-5--7~---10~---3~--5~-| x 4
E|---------------------------------------|

After chorus-

G|--------------------------------|
D|--------------------------------|
A|-7-7-7-7-7-7-7--3-3-3-3-5-5-5-5-| x 4
E|--------------------------------|


G|--------------------------------------|
D|--------------------------------------|
A|-77777777-77777777--33333333-55555555-| x 14
E|--------------------------------------|

G|-------------------------------------------|
D|-------------------------------------------|
A|--7-7-7--7-7--7-7-7-7--3-3-3---------------| x 2
E|------------------------------3-3--3-5-5-5-|

then-
x 2
G|--------------------------------|
D|--------------------------------|
A|-7-7-7-7-7-7-7--3-3-3-3-5-5-5-5-|
E|--------------------------------|

G|--------------------------------|
D|------------------------5-5-5-5-|
A|-7-7-7-7-7-7-7--3-3-3-3---------|
E|--------------------------------|


Then-


"I want to leave my life on my own...."

G|--------------------------------------------|
D|--------------------------------------------|
A|-7-7--7-7--7-7--7-7--7--3-3--3-3------------| x 4
E|---------------------------------3--3-3-3-5-|


Chorus x 8

Then-

G|-16~------------------------|
D|-14~-14~-14~----17-17-17-19-|
A|-------------15-------------| x 1
E|-0~~~-----------------------|


G|-------------------------------|
D|-14~-14~-14~-------------------|
A|-------------15-15/10-10-10-12-| x 1
E|-------------------------------|

End-

G|----|
D|----|
A|-7~-|
E|-0~-|



enjoy
im sure most of this gives you a good indication of how to play the song, the only part im unsure about is after the 1st chorus
  development and support by
dmitry ivanov