rock
 
|tablatures   |lyrics   |discussion forums   |more tabs @ XGuitar.com

Iron Maiden tabs

The Clansman bass tab

#----------------------------------PLEASE NOTE--------------------------------#
#This file is the author's own work and represents their interpretation of the#
#song. You may only use this file for private study, scholarship, or research.#
#-----------------------------------------------------------------------------#
#-- File created with Instab - http://www.pconline.com/~smcarey/instab.html --#
#-----------------------------------------------------------------------------#

Author/Artist: Iron Maiden
Title: The Clansman
Album: Virtula XI
Transcribed by: Paulo Canha
Email: pcanha@telepar.com.br

This is the better Maiden song with Blaze Bailey, enjoy it.
Any corrects, please, e-mail me.


Intro
 Part I
G---9---9---9---9-|---7---7---7---7-|-----------------|---5---5---7---7-|
D-7---7---7---7---|-5---5---5---5---|---7---7---7---7-|-3---3---5---5---|
A-----------------|-----------------|-5---5---5---5---|-----------------|
E-----------------|-----------------|-----------------|-----------------|                                                                             


G---9---9---9---9-|---7---7---7---7-|-----------------|---5---5---7---7-|
D-7---7---7---7---|-5---5---5---5---|---7---7---7---7-|-3---3---5---5---|
A-----------------|-----------------|-5---5---5---5---|-----------------|
E-----------------|-----------------|-----------------|-----------------| 


G---9---9---9---9-|---7---7---7---7-|-----------------|---5---5---7---7-|
D-7---7---7---7---|-5---5---5---5---|---7---7---7---7-|-3---3---5---5---|
A-----------------|-----------------|-5---5---5---5---|-----------------|
E-----------------|-----------------|-----------------|-----------------| 


G---9---9---9---9-|---7---7---7---7-|-----------------|---5---5---7---7-|
D-7---7---7---7---|-5---5---5---5---|---7---7---7---7-|-3---3---5---5---|
A-----------------|-----------------|-5---5---5---5---|-----------------|
E-----------------|-----------------|-----------------|-----------------| 


 Part II
G---5---5---5---5-|---5---5---5---5-|-----------------|-----------------|
D-3---3---3---3---|-3---3---3---3---|---5---5---5---5-|---5---5---5---5-|
A-----------------|-----------------|-3---3---3---3---|-3---3---3---3---|
E-----------------|-----------------|-----------------|-----------------|                                                                             


G---7---7---7---7-|---7---7---7---7-|-----------------|-----------------|
D-5---5---5---5---|-5---5---5---5---|---7---7---7---7-|---7---7---7---7-|
A-----------------|-----------------|-5---5---5---5---|-5---5---5---5---|
E-----------------|-----------------|-----------------|-----------------|    


G---5---5---5---5-|---5---5---5---5-|-----------------|-----------------|
D-3---3---3---3---|-3---3---3---3---|---5---5---5---5-|---5---5---5---5-|
A-----------------|-----------------|-3---3---3---3---|-3---3---3---3---|
E-----------------|-----------------|-----------------|-----------------|


G---7---7---7---7-|---7---7---7---7-|---7---7---7---7-|---7---7---7---7-|
D--5---5---5---5--|--5---5---5---5--|--5---5---5---5--|--5---5---5---5--|
A-0---------------|-0---------------|-0---------------|-0---------------|
E-----------------|-----------------|-----------------|-----------------|  


 Part III 
G----7-9-9-7-9-9-|----7-9-9-10-9-|----7-9-9-7-9-9-|----7-9-9-10-9-|
D---7-7-7-7-7-7--|---7-7-7-7--7--|---7-7-7-7-7-7--|---7-7-7-7--7--|
A-0--------------|-0-------------|-0--------------|-0-------------|
E----------------|---------------|----------------|---------------|                                                                             


G---7---7---7---7-|-----------------|----7-9-9-7-9-9-|----7-9-9-10-9-|
D-5---5---5---5---|---7---7---7---7-|---7-7-7-7-7-7--|---7-7-7-7--7--|
A-----------------|-5---5---5---5---|-0--------------|-0-------------|
E-----------------|-----------------|----------------|---------------|                                                                             


G---7---7---7---7-|-----------------|---5---5---5---5-|-----------------|
D-5---5---5---5---|---7---7---7---7-|-3---3---3---3---|---5---5---5---5-|
A-----------------|-5---5---5---5---|-----------------|-3---3---3---3---|
E-----------------|-----------------|-----------------|-----------------|                                                                             


G---7---7---7---7-|-----------------|----9---9---9---9-|---9---9---9---9-|
D-5---5---5---5---|---7---7---7---7-|--7---7---7---7---|-7---7---7---7---|
A-----------------|-5---5---5---5---|-0----------------|-----------------|
E-----------------|-----------------|------------------|-----------------| 


 Vocals Enter
G----9---9---9---9-|---9---9---9---9-|----9---9---9---9-|---9---9---9---9-|
D--7---7---7---7---|-7---7---7---7---|--7---7---7---7---|-7---7---7---7---|
A-0----------------|-----------------|-0----------------|-----------------|
E------------------|-----------------|------------------|-----------------|                                                                             


G---7---7---7---7-|-----------------|----9---9---9---9-|---9---9---9---9-|
D-5---5---5---5---|---7---7---7---7-|--7---7---7---7---|-7---7---7---7---|
A-----------------|-5---5---5---5---|-0----------------|-----------------|
E-----------------|-----------------|------------------|-----------------|


G---7---7---7---7-|-----------------|---5---5---5---5-|-----------------|
D-5---5---5---5---|---7---7---7---7-|-3---3---3---3---|---5---5---5---5-|
A-----------------|-5---5---5---5---|-----------------|-3---3---3---3---|
E-----------------|-----------------|-----------------|-----------------|


G---7---7---7---7-|-----------------|----9---9---9---9-|---9---9---9---9-|
D-5---5---5---5---|---7---7---7---7-|--7---7---7---7---|-7---7---7---7---|
A-----------------|-5---5---5---5---|-0----------------|-----------------|
E-----------------|-----------------|------------------|-----------------|


G----9---9---9---9-|---9---9---9---9-|----9---9---9---9-|---9---9---9---9-|
D--7---7---7---7---|-7---7---7---7---|--7---7---7---7---|-7---7---7---7---|
A-0----------------|-----------------|-0----------------|-----------------|
E------------------|-----------------|------------------|-----------------|                                                                             


G---7---7---7---7-|-----------------|----9---9---9---9-|---9---9---9---9-|
D-5---5---5---5---|---7---7---7---7-|--7---7---7---7---|-7---7---7---7---|
A-----------------|-5---5---5---5---|-0----------------|-----------------|
E-----------------|-----------------|------------------|-----------------|


G---7---7---7---7-|-----------------|---5---5---5---5-|-----------------|
D-5---5---5---5---|---7---7---7---7-|-3---3---3---3---|---5---5---5---5-|
A-----------------|-5---5---5---5---|-----------------|-3---3---3---3---|
E-----------------|-----------------|-----------------|-----------------|


G---7---7---7---7-|-----------------|----9---9---9---9-|---9---9---9---9-|
D-5---5---5---5---|---7---7---7---7-|--7---7---7---7---|-7---7---7---7---|
A-----------------|-5---5---5---5---|-0----------------|-----------------|
E-----------------|-----------------|------------------|-----------------|


 Chorus (Freedom...)
G-----------------|-----------------|-----------------|-----------------|
D-----------------|-----------------|-----------------|-----------------|
A-7-7-7-7-7-7-7-7-|-3-3-3-3---------|-7-7-7-7-7-7-7-7-|-3-3-3-3---------|
E-----------------|---------3-3-3-3-|-----------------|---------3-3-3-3-|                                                                             


G-----------------|-----------------|-----------------|-----------------|
D-----------------|-----------------|-----------------|-----------------|
A-7-7-7-7-7-7-7-7-|-3-3-3-3---------|-----------------|-3-3-3-3-5-5-5-5-|
E-----------------|---------3-3-3-3-|-5-5-5-5-5-5-5-5-|-----------------|                                                                             


 Verse
G-----------------|-----------------|-----------------|-----------------|
D-----------------|-----------------|-----------------|-----------------|
A-7-7-7-7-7-7-7-7-|-7-7-7-7-7-7-7-7-|-7-7-7-7-7-7-7-7-|-7-7-7-7-7-7-7-7-|
E-----------------|-----------------|-----------------|-----------------|                                                                             


G-----------------|-----------------|-----------------|-----------------|
D-----------------|-----------------|-----------------|-----------------|
A-5-5-5-5-5-5-5-5-|-----------------|-7-7-7-7-7-7-7-7-|-7-7-7-7-7-7-7-7-|
E-----------------|-5-5-5-5-5-5-5-5-|-----------------|-----------------|                                                                             


G-----------------|-----------------|-----------------|-----------------|
D-----------------|-----------------|-----------------|-----------------|
A-5-5-5-5-5-5-5-5-|-----------------|-3-3-3-3-3-3-3-3-|-----------------|
E-----------------|-5-5-5-5-5-5-5-5-|-----------------|-3-3-3-3-3-3-3-3-|                                                                             


G-----------------|-----------------|-----------------|-----------------|
D-----------------|-----------------|-----------------|-----------------|
A-5-5-5-5-5-5-5-5-|-----------------|-7-7-7-7-7-7-7-7-|-7-7-7-7-7-7-7-7-|
E-----------------|-5-5-5-5-5-5-5-5-|-----------------|-----------------|                                                                             


Repeat Verse
Repeat Chorus

 Guitar duet I (2X)
G-----------------|-----------------|-----------------|-----------------|
D.----------------|-----------------|-----------------|-----------------|
A.7-7-7-7-7-7-7-7-|-7-7-7-7-7-7-7-7-|-3-3-3-3-5-5-5-5-|-7-7-7-7-7-7-7-7-|
E-----------------|-----------------|-----------------|-----------------|                                                                             


G-----------------|-----------------|-----------------|-----------------|
D-----------------|-----------------|-----------------|-----------------|
A-7-7-7-7-7-7-7-7-|-7-7-7-7-7-7-7-7-|-3-3-3-3-5-5-5-5-|-7-7-7-7-7-7-7-7-|
E-----------------|-----------------|-----------------|-----------------|


G-----------------|-----------------|-----------------|
D-----------------|-----------------|----------------.|
A-3-3-3-3-5-5-5-5-|-7-7-7-7-7-7-7-7-|-7-7-7-7-7-7-7-7.|
E-----------------|-----------------|-----------------|


 Guitar duet II (2X)
G-----------------|-----------------|-----------------|-----------------|
D-----------------|-5---------------|-----------------|-----------------|
A-7-7-7-7-7-7-7-7-|---------3-------|-5-5-5-5-5-5-5-5-|-5-5-5-5-5-5-5-5-|
E-----------------|-----------------|-----------------|-----------------|                                                                             


G-----------------|-----------------|-----------------|-----------------|
D-----------------|-5---------------|-----------------|-----------------|
A-3-3-3-3-3-3-3-3-|---------5-------|-7-7-7-7-7-7-7-7-|-7-7-7-7-7-7-7-7-|
E-----------------|-----------------|-----------------|-----------------|                                                                             


 Guitar solo I  (Repeat Guitar Duet II-2x)
 Guitar solo II (Repeat Chorus)
 Reapeat Intro Part III


 Interlude (oh-oh-oh)
G-----------------|-----------------|-----------------|-----------------|
D.----------------|-----------------|-----------------|-----------------|
A.7-7-7-7-7-7-7-7-|-7-7-7-7-7-7-7-7-|-7-7-7-7-7-7-7-7-|-7-7-7-7-7-7-7-7-|
E-----------------|-----------------|-----------------|-----------------|                                                                             


G-----------------|-----------------|-----------------|-----------------|
D-----------------|-----------------|-----------------|----------------.|
A-5-5-5-5-5-5-5-5-|-----------------|-7-7-7-7-7-7-7-7-|-7-7-7-7-7-7-7-7.|
E-----------------|-5-5-5-5-5-5-5-5-|-----------------|-----------------| 


G-----------------|-----------------|-----------------|-----------------|
D-----------------|-----------------|-----------------|-----------------|
A-7-7-7-7-7-7-7-7-|-7-7-7-7-7-7-7-7-|-7-7-7-7-7-7-7-7-|-7-7-7-7-7-7-7-7-|
E-----------------|-----------------|-----------------|-----------------|     


G-----------------|-----------------|-----------------|-----------------|
D-----------------|-----------------|-----------------|-----------------|
A-5-5-5-5-5-5-5-5-|-----------------|-3-3-3-3-3-3-3-3-|-----------------|
E-----------------|-5-5-5-5-5-5-5-5-|-----------------|-3-3-3-3-3-3-3-3-| 


G-----------------|-----------------|
D-----------------|-----------------|
A-7-7-7-7-7-7-7-7-|-7-7-7-7-7-7-7-7-|
E-----------------|-----------------|                                                                             


 Guitar Duet III (4X)
G-----------------|-----------------|-----------------|-----------------|
D-----------------|---------5-5-5-5-|-----------------|-5-5-5-5---------|
A-7-7-7-7-7-7-7-7-|-7-7-7-7---------|-3-3-3-3-3-3-3-3-|---------5-5-5-5-|
E-----------------|-----------------|-----------------|-----------------|                                                                             
 
 Repeat Chorus
 Repeat Verse
 Repeat Chorus


G----7-9-9-7-9-9-|----7-9-9-10-9-|----7-9-9-7-9-9-|----7-9-9-10-9-|
D---7-7-7-7-7-7--|---7-7-7-7--7--|---7-7-7-7-7-7--|---7-7-7-7--7--|
A-0--------------|-0-------------|-0--------------|-0-------------|
E----------------|---------------|----------------|---------------|                                                                             


G---7---7---7---7-|-----------------|----7-9-9-7-9-9-|----7-9-9-10-9-|
D-5---5---5---5---|---7---7---7---7-|---7-7-7-7-7-7--|---7-7-7-7--7--|
A-----------------|-5---5---5---5---|-0--------------|-0-------------|
E-----------------|-----------------|----------------|---------------|                                                                             


G---7---7---7---7-|-----------------|---5---5---5---5-|-----------------|
D-5---5---5---5---|---7---7---7---7-|-3---3---3---3---|---5---5---5---5-|
A-----------------|-5---5---5---5---|-----------------|-3---3---3---3---|
E-----------------|-----------------|-----------------|-----------------|                                                                             


G---7---7---7---7-|-----------------|----9---9---9---9-|---9---9---9---9-|
D-5---5---5---5---|---7---7---7---7-|--7---7---7---7---|-7---7---7---7---|
A-----------------|-5---5---5---5---|-0----------------|-----------------|
E-----------------|-----------------|------------------|-----------------| 

End.
  development and support by
dmitry ivanov