rock
 
|tablatures   |lyrics   |discussion forums   |more tabs @ XGuitar.com

Iron Maiden tabs

The Assassin bass tab

From: Guilherme Braga (fester@cpovo.net)

The Assassin
by IRON MAIDEN
BASS TAB


|--------------------------------------------------------------------------|
|-2-------2------2----5-------5-------5-----3-------3-------3--------------|
|----0-0-----0-0----0----0-0-----0-0-----0-----0-0-----0-0----0-3-0-0-5-2--|
|--------------------------------------------------------------------------|
 Play four times
|-.-.-.-.---------.-.-.-.-----|--------9----------10----------7----------9---|
|-2-2-2-2-3-3-0-2-2-2-2-2-----|--7--9-------7--9--------7--9-------7--9------|
|-------------------------3-5-|----------------------------------------------|
|-----------------------------|----------------------------------------------|
Play four times                Play twice, then twice again in F instead of A

|-----------------------|----------------------------------------------------
|--7h9h10-7-9----9------|----9-----9-----10-----7-----7-------7-----7--------
|-------------10---10---|--7---7-7---7-7----7-7---7-7---7-5-5---5-5---5-5-9-0
|-----------------------|----------------------------------------------------
                         Chorus- "better watch out.."

-----------------------------------------------------------------------------
------------9-----9-----10-----7-----7-------7-----7--------------------5----	             
-0-10-9-7-7---7-7---7-7----7-7---7-7---7-5-5---5-5---5-5-9-0-0-10-9-3-3---3-3
-----------------------------------------------------------------------------

-------------------------------------------------------|
-5-----6-----3-----3-------6-----6-----3-----5-----5---|
---3-3---3-3---3-3---3-3-3---3-3---3-3---3-3---3-3---3-|
-------------------------------------------------------|
                             The chorus is played twice

|-----------------------------|---------------------------|
|------7h9h10-7-9----9----7---|------7h9h10-7-9----9----8-|
|-7-7-------------10---10---8-|-7-7-------------10---10---|
|-----------------------------|---------------------------|
 "Assassin.."                  "Assassin.."

|----------------------------|--------------------------------------------|
|-----7h9h10-7-9----9----7---|-----7h9h10-7-9----7------------------------|
|-7-7------------10---10---8-|-7-7------------10---8-10p9p7-9----7--------|
|----------------------------|--------------------------------10---9-10-7-|
 "Assassin.."                 "Assassin...                  ...Hahahaha!!"

|-----------------------------------------------------------------|
|-----------------------------------------------------------------|
|-----------------------------------------------------------------|
|-8-8-8-8-8-8-8-8-8-8-8-8-9-9-7-8-8-8-8-8-8-8-8-8-8-8-8-8-4-4-6-6-|

-----------------------------------------------------------------|
-----------------------------------------------------------------|
-7-7-7-7-7-7-7-7-7-7-7-7-8-8-5-7-7-7-7-7-7-7-7-7-7-7-7-7-----5-5-|
---------------------------------------------------------8-8-----|

|-----------------------------------------------------|
|-----------------------------------------------------|
|-2-2-2-2-2-2-2-2-2-2-2-2-2-2-2-2-2-2-2-2-2-2-2-2-----|
|-------------------------------------------------2-2-|
 Guitar solo				        Play twice

|-----------------------------------------------5-4---5-4---|
|-3-3-3-3-3-3-3-3-3-3-3-3-5-5-3-3-3-3-3-3-3-3-3-----5-----5-|
|-----------------------------------------------------------|
|-----------------------------------------------------------|
							        Play twice

|-----------------------------------------------------|
|-----------------------------------------------------|
|-2-2-2-2-2-2-2-2-2-2-2-2-2-2-2-2-2-2-2-2-2-2-2-2-----|
|-------------------------------------------------2-2-|
                                            Play twice

|-----------------------------------------------5-4---5-4---|
|-3-3-3-3-3-3-3-3-3-3-3-3-5-5-3-3-3-3-3-3-3-3-3-----5-----5-|
|-----------------------------------------------------------|
|-----------------------------------------------------------|
					        Play twice end of solo

|--------9----------10----------7----------9---|
|--7--9-------7--9--------7--9-------7--9------|
|----------------------------------------------|
|----------------------------------------------|
 Play twice, then twice again in F instead of A

|-----------------------|----------------------------------------------------
|--7h9h10-7-9----9------|----9-----9-----10-----7-----7-------7-----7--------
|-------------10---10---|--7---7-7---7-7----7-7---7-7---7-5-5---5-5---5-5-9-0
|-----------------------|----------------------------------------------------
                         Chorus- "better watch out.."

-----------------------------------------------------------------------------
------------9-----9-----10-----7-----7-------7-----7--------------------5----	             
-0-10-9-7-7---7-7---7-7----7-7---7-7---7-5-5---5-5---5-5-9-0-0-10-9-3-3---3-3
-----------------------------------------------------------------------------

-------------------------------------------------------|-----------|
-5-----6-----3-----3-------6-----6-----3-----5-----5---|-----------|
---3-3---3-3---3-3---3-3-3---3-3---3-3---3-3---3-3---3-|-7-7-------|
-------------------------------------------------------|-----------|
                             The chorus is played twice "Assassin!"
  development and support by
dmitry ivanov