rock
 
|tablatures   |lyrics   |discussion forums   |more tabs @ XGuitar.com

Iron Maiden tabs

The Apparition bass tab

IRON MAIDEN
THE APPARITION
BASS TAB
TABBED BY ENDEMICBASS666

intro:

G-----------------------7-7-----|--------------------------------|
D----9-9-9--------------5-5-----|--7-7-7------------9-9-9--------|
A----7-7-7----------------------|--5-5-5------------7-7-7--------|
E-0-----------------------------|--------------------------------|


G-------------------7-7-7-----------|---------------------------|
D--9-9-9------------5-5-5-----------|-------7-7-7------9-9-9----|
A--7-7-7----------------------------|-------5-5-5------7-7-7----|
E-----------------------------------|---------------------------|

G----------------7--7--------|------------------------------|-----------7-7-7----
D--9-9-9---------5--5--------|---7-7-7---------9-9-9--------|-9-9-9-----5-5-5----
A--7-7-7---------------------|---5-5-5---------7-7-7--------|-7-7-7--------------
E----------------------------|------------------------0-0-0-|--------------------

G-----------
D--7--9-----
A--5--7-----
E-----------

G------9-9-9---------7-7-7---|---------------------
D------7-7-7---------5-5-5---|----7-7-7------------
A------7-7-7---------5-5-5---|----5-5-5------------
E----------------------------|---------------------

----------------------|-9-9-9-------------7-7-7--------------|----------------
--7-7-7---------------|-7-7-7-------------5-5-5--------------|-5--7------7----
--5-5-5----7-7-7------|-7-7-7-------------5-5-5--------------|-3--5------5----
-----------5-5-5------|--------------------------------------|----------------


G--9-9-9---------7-7-7----|-------------------------
D--7-7-7---------5-5-5----|---7-7-7--------7-7-7----
A--7-7-7---------5-5-5----|---5-5-5--------5-5-5----
E-------------------------|-------------------------


G---------------|----9-9-9-----------7-7-7--------|--------------------------|
D---------------|----7-7-7-----------5-5-5--------|--5---7--------7----------|
A---7-7-7-------|----7-7-7-----------5-5-5--------|--3---5--------5----------|
E---5-5-5-------|---------------------------------|--------------------------|


G----------------7--7-----|----------------------|----------------------
D--9-9-9---------5--5-----|-7-7-7-------9-9-9----|------9-9-9-----------
A--7-7-7------------------|-5-5-5-------7-7-7----|------7-7-7-----------
E-------------------------|----------------------|----------------------

G------7-7-7----|---------------------|----------------7--7-----|--------------
D------5-5-5----|--7-7-7------9-9-9---|-9-9-9----------5--5-----|---7-7-7------
A---------------|--5-5-5------7-7-7---|-7-7-7-------------------|---5-5-5------
E---------------|---------------------|-------------------------|--------------

G--------------------|-------------------7-7-7---------|--------------
D---9-9-9------------|-----9-9-9---------5-5-5---------|--7-----9-----
A---7-7-7------------|-----7-7-7-----------------------|--5-----7-----
E-----------0-0-0----|---------------------------------|--------------


G-----9-9-9------------7-7-7---|------------------------------------------|
D-----7-7-7------------5-5-5---|--7-7-7---------7-7-7---------------------|
A-----7-7-7------------5-5-5---|--5-5-5---------5-5-5-----7-7-7-----------|
E------------------------------|--------------------------5-5-5-----------|

G--9-9-9-------------7-7-7-----------------|--------------------------------|
D--7-7-7-------------5-5-5-----------------|---5----7------7----------------|
A--7-7-7-------------5-5-5-----------------|---3----5------5----------------|
E------------------------------------------|--------------------------------|

G---9-9-9------------7-7-7--|----------------------------|-9-9-9--------7-7-7---
D---7-7-7------------5-5-5--|---7-7-7-------7-7-7--------|-7-7-7--------5-5-7---
A---7-7-7------------5-5-5--|---5-5-5-------5-5-5---7-7-7|-7-7-7--------5-5-5---
E---------------------------|-----------------------5-5-5|----------------------

G--------------------|
D--5----7-------7----|
A--3----5-------5----|
E--------------------|


break 1:

G-----------------------------|----------------------------------|
D------------------------5----|------------------5-5-5-7-5\4-----|
A--7----7-5h7-7----7-5h7---7--|----7-5h7-7-7-5h7--------------7--| x2
E-----------------------------|----------------------------------|



break 2:

G-----------------------------|-------------------------------|
D------------------------7----|--------------7-7-7-9-7\6------|
A--9----9-7h9-9----9-7h9---9--|9-7h9-9-9-7h9-------------9----| x2
E-----------------------------|-------------------------------|


repeat break 1 (under the first guitar solo)

then

interlude (X2):


G------2----2-----2-4/6-4-6--10--12-12--10--9-10--12--10--9-----
D--/4----4-----4------------------------------------------------
A---------------------------------------------------------------
E---------------------------------------------------------------


-4--4--4-----4--6--4--2------
----------7--------------4\2-
-----------------------------
-----------------------------

repeat break 2 (under the following part of the guitar solo)

then:

riff 1 (under guitar solo) (x2):

G----------------------------------------------------------------------
D----------------------------------------------------------------------
A--------------------------------------------------------7777----------
E--7h9--9-9-9-9-------7h9--9-9-9-9------7h9--9-9-9-9-------------------
 	
G---------------------------------------------------------------------
D---------------------------------------------------------------------
A---------------------------------------------------------------------
E--7h9--9-9-9-9-------7h9--9-9-9-9------7h9--9-9-9-9-----0000---------

then


riff 2:

G----------------------------------------------------|------------------------
D---------------------------------------5------------|------------------------
A--5--------5--------5--------5------------5--7------|5--------5--------5-----
E-----6--7-----6--7-----6--7-----6--7-------------R--|---6--7-----6--7-----6--
		


------------------|------------------------------------------------|--5--7-----
------------------|------------------------------------5-----------|--5--7-----
----5-------------|5--------5--------5--------5-----------5--7-----|--3--5-----
-7-----6--7--3--0-|---6--7-----6--7-----6--7-----6--7-----------R--|-----------


repeat intro part

end.


TABBED BY ENDEMICBASS666

UP THE IRONS ! ! !
  development and support by
dmitry ivanov