rock
 
|tablatures   |lyrics   |discussion forums   |more tabs @ XGuitar.com

Iron Maiden tabs

The Angel And The Gambler bass tab

I made this tab as best as i could.
If you see a mistake or have any questions or there are any other
Iron Maiden songs you want me to tab for you please e-mail me at brucklepea@hotmail.com.
You can also e-mail if you want to know what part of the song sounds like
on bass and i\\'ll send you the sound file of me playing it.
Thanks.

Band-   Iron Maiden
Album-  Virtual XI
Song-   The angel and the gambler

> = slide to
~ = let ring
| = pause
h = hammer on

Intro
G|-9-9-9-9-9-9-9-9-11-9-7-9-9-9-9-9-9-9-9-11-9-7-12-12-12-12-12-12-12-12---
D|-------------------------------------------------------------------------
A|-------------------------------------------------------------------------
E|-------------------------------------------------------------------------

Intro (continued)
G|-9-7-5-7-7-7-7-7-7-7-7-5-7----
D|------------------------------
A|------------------------------ x4
E|------------------------------

Verse
G|-----------------------------------------------------------------------------
D|-7-7-7-7-7-7-7-7-7-7-7-7-5-5-5-5-5-5-5-5--------------------7-7-7-7-7-7-7-7--
A|-----------------------------------------5-5-5-5-5-5-5-5--------------------- x2
E|-----------------------------------------------------------------------------

Chorus
G|---------------------------------7-7-7-------------7-7-7--------------------
D|-5-5-5-5-5-5-5-5-5-5-5-5-5-5-5-5-------7-7-7-7-7-7-------7-7-7-7-7-7-7-7----
A|---------------------------------------------------------------------------- x2
E|----------------------------------------------------------------------------

Verse x2

Chorus x2

Break 1
G|---------------------------------7-7-7-7-7-7-7-7---------------------
D|-7-7-7-7-7-7-7-7-5-5-5-5-5-5-5-5-----------------7-7-7-7-7-7-7-7-----
A|---------------------------------------------------------------------
E|---------------------------------------------------------------------

Break 1 (continued)
G|-----------------7-7-7-7-7-7-7-7------------------------------------
D|-7-7-7-7-7-7-7-7-----------------5-5-5-5-5-5-5-5-7-7-7-7-7-7-7-7----
A|-------------------------------------------------------------------- x2
E|--------------------------------------------------------------------

Intro x2

Break 2 (quietly)
G|---------------------------------7-7-7-7-7-7-7-7--------------------
D|-7-7-7-7-7-7-7-7-5-5-5-5-5-5-5-5-----------------7-7-7-7-7-7-7-7----
A|-------------------------------------------------------------------- x2
E|--------------------------------------------------------------------

Break 3 (quietly)
G|---------------------------------------------------------------------
D|-7-7-7-7-7-7-7-7-3-3-3-3-3-3-3-3-5-5-5-5-5-5-5-5-7-7-7-7-7-7-7-7-----
A|---------------------------------------------------------------------
E|---------------------------------------------------------------------

Break 4 (quietly)
G|---------------------------------5-5-5-5-5-5-5-5---------------------
D|-7-7-7-7-7-7-7-7-3-3-3-3-3-3-3-3-----------------5-5-5-5-5-5-5-5-----
A|---------------------------------------------------------------------
E|---------------------------------------------------------------------

Break 5 (quietly)
G|-----------------7-7-7-7-7-7-7-7-10-10-10-10-10-10-10-10-------------------
D|-7-7-7-7-7-7-7-7-----------------------------------------7-7-7-7-7-7-7-7---
A|---------------------------------------------------------------------------
E|---------------------------------------------------------------------------

Break 6
G|---------------------------------7-7-7-7-7-7-7-7--------------------
D|-7-7-7-7-7-7-7-7-5-5-5-5-5-5-5-5-----------------7-7-7-7-7-5-5-5----
A|--------------------------------------------------------------------
E|--------------------------------------------------------------------

Break 7
G|---------------------------------------------------------------------
D|-7-7-7-7-7-7-7-7-3-3-3-3-3-3-3-3-5-5-5-5-5-5-5-5-7-7-7-7-7-7-5-5-5---
A|---------------------------------------------------------------------
E|---------------------------------------------------------------------

Break 4

Break 5

Break 6 x2

Solo 1
G|---------------------------------7-7-7-7-7-5-5-5--------------------
D|-7-7-7-7-7-7-7-7-5-5-5-5-5-5-5-5-----------------7-7-7-7-7-7-7-7----
A|-------------------------------------------------------------------- x2
E|--------------------------------------------------------------------

Verse x2

Chorus x2

Break 3

Break 5

Break 2

Break 8
G|-----------------7-7-7-7-7-7-7-7-10-10-10-10-10-10-10-10-12-12-12-12-12-12-12-12----
D|-7-7-7-7-7-7-7-7--------------------------------------------------------------------
A|------------------------------------------------------------------------------------
E|------------------------------------------------------------------------------------

Break 2

Break 3

Break 5

Break 2

Break 8

Break 2

Intro x2

Outro
G|------
D|-7~---
A|------
E|------

Please rate this tab and put your comments. Thankyou.
  development and support by
dmitry ivanov