rock
 
|tablatures   |lyrics   |discussion forums   |more tabs @ XGuitar.com

Iron Maiden tabs

The Aftermath bass tab

THE AFTERMATH BASS TABLATURE

tabbed by Michael Bellinger email juanveron1987@hotmail.com

FIrstly i tabbed this out using a X factour unofficail DVD (Brasil 1996) so i know its right.


Intro-

part 1
G|-----14--14--14-----14--14--14----14--14--14---------|
D|---14--14--14-----14--14--14----14--14--14---10-9----|
A|-12-------------12------------12------------------10-| x 3
E|-----------------------------------------------------|

part 2
G|-----14--14--14-----14--14--14----14--14--14-------|
D|---14--14--14-----14--14--14----14--14--14---3-2---|
A|-12-------------12------------12-----------------3-| x 1
E|---------------------------------------------------|

Verse-

G|-----------------------------------------|
D|-----------------------------------------|
A|-----------------------------3-3-3-3-5-5-|
E|-5-5-3-5--3-3-3-2-3--3-3-2-3-------------| x 6


"In The Mud.............."

G|------------------|-----------------------|
D|------------------|-----------5-4-2-4-2---|
A|----3-5---------55|---3-5---------------5-|
E|-5~-----5-3--33---|-5~----5-3-------------| x 2


Intro part 1 x 1
Intro part 2 x 1


Verse X 4


"In The Mud.............."


G|------------------|-----------------------|
D|------------------|-----------5-4-2-4-2---|
A|----3-5---------55|---3-5---------------5-|
E|-5~-----5-3--33---|-5~----5-3-------------| x 1

G|-----------------------|-----------------------|
D|------------5-4-2-4-2--|-----------5-4-2-4-2---|
A|----3-5--------------5-|---3-5---------------5-|
E|-5~-----5-3------------|-5~----5-3-------------| x 1

Intro part 1 x 1
Intro part 2 x 1


"After the war!,.........."

G|-------------------------------------------|-------------------------------------------|
D|-------------------------------------------|-------------------------------------------|
A|-------------------------------3--2------2-|-------------------------------3--2---3--2-|
E|-5-5-5-5--1-1-1-1-1-1--3-3-3-3-----3-0-3---|-5-5-5-5--1-1-1-1-1-1--3-3-3-3------3------| x 2


Interlude x 3-

G|-9-999--9-999--5-555-5-555--7-777-7-777--7-777-7-777-|
D|-7-777--7-777--3-333-3-333--5-555-5-555--5-555-5-555-|
A|-----------------------------------------------------|
E|-----------------------------------------------------|

G|-9-999-9-999--5-555-7-777--9-999-9-999--9-999-9-999-|
D|-7-777-7-777--5-555-7-777--9-999-9-999--9-999-9-999-|
A|--------------3-333-5-555--7-777-7-777--7-777-7-777-|
E|----------------------------------------------------|

"IM Just a soldier!" (short bridge)

G|-------------|
D|-------------|
A|-8--8--8--10-|
E|-------------|

Under guitar Solo 1
(fast)
G|----------------------------------------------------------------------------------
D|----------------------------------------------------------------------------------
A|-0--0-0-0-0--0--0-0-0-0--8--8-8-8-8--8--8-8-8-8--10--10-10-10-10--10--10-10-10-10-
E|----------------------------------------------------------------------------------

G|----------------------------------|
D|----------------------------------|
A|-10--10-10-10-10--10--10-10-10-10-|
E|----------------------------------|

continues-

G|------------------------------------------------------------------------
D|------------------------------------------------------------------------
A|-0--0-0-0-0--0--0-0-0-0--3--3-3-3-3--5--5-5-5-5--7--7-7-7-7--7--7-7-7-7-
E|------------------------------------------------------------------------

G|------------------------|
D|------------------------|
A|-7--7-7-7-7--7--7-7-7-7-|
E|------------------------|

Play this whole section twice ( x 2) under guitar solo 1



Under Guitar Solo 2-

G|----------------------------------------------------------------------------------
D|----------------------------------------------------------------------------------
A|-0--0-0-0-0--0--0-0-0-0--8--8-8-8-8--8--8-8-8-8--10--10-10-10-10--10--10-10-10-10-
E|----------------------------------------------------------------------------------

G|------------------------|
D|------------------------|
A|-3--3-3-3-3--5--5-5-5-5-|
E|------------------------|

Play the whole riff twice though under guitar solo 2

Bridge at end of solo -

G|------------------------------------------------|-5-5-5-7-7-|
D|------------------------------------------------|-5-5-5-7-7-|
A|-7--7-7-7-7--7--7-7-7-7--7--7-7-7-7--7--7-7-7-7-|-3-3-3-5-5-|
E|------------------------------------------------|-----------|

"After the war!,.........."

G|-------------------------------------------|-------------------------------------------|
D|-------------------------------------------|-------------------------------------------|
A|-------------------------------3--2------2-|-------------------------------3--2---3--2-|
E|-5-5-5-5--1-1-1-1-1-1--3-3-3-3-----3-0-3---|-5-5-5-5--1-1-1-1-1-1--3-3-3-3------3------| x 2


Intro part 1 x 2


END:D

enjoy playing the song :)
  development and support by
dmitry ivanov