rock
 
|tablatures   |lyrics   |discussion forums   |more tabs @ XGuitar.com

Iron Maiden tabs

Sun And Steel bass tab

Iron Maiden - Sun And Steel
From: Marcelo Danemberg Marsili (alumar@uninet.com.br)

|---------------------------------------------------------------------------------
|---7---------7-----7-----------------------7---------------------7---------------
|-9---9-7---9---9-7---9-999-999-999-999-999---9-999-999-999-999-7---9-999-999-999-
|---------------------------------------------------------------------------------
                                      Verse
----------------------------------------------------------------------------------
--------7-------------------------7-----------------------------------------------
999-999---9-999-999-999-999-999-9---9-7-777-777-777-777-777-777-777-777-777-777-77
----------------------------------------------------------------------------------

----------------------------------------------------------------------------------
------------7-----7-----------------------7-------------------------7-------------
7-777-777-9---9-7---9-999-999-999-999-999---9-999-999-999-999-999-9---9-7-777-777-
----------------------------------------------------------------------------------

----------------------------------------------------------------------------------
----------------------------------------------7-----7-----------------------7-----
777-777-777-777-777-777-777-777-777-777-777-9---9-7---9-999-999-999-999-999---9-99
----------------------------------------------------------------------------------
                    Chorus
------------------|---------------------------------------------------------------
------------------|---------------------------------------------------------------
9-999-999-999-999-|---------------------------------------------------------------
------------------|-5-555-555-555-555-555-555-555-3-333-333-333-333-333-333-333-33

---------------------------7-5-----------------------5555-7-5-4-------------------
---------------------5h7p5-----7-5------------------------------5-----------------
-5-555-555-555-555-5---------------3-3-3-3-3-3-3-3-3------------------------------
------------------------------------------------------------------5-555-555-555-55

----------------------------------------------------------------------------------
----------------------------------------------------------------5-5-5-7-5---------
--------------------------------------------5-5-5-5-5-5-5-5-5-5-----------7-5-3-3-
5-555-555-555-3-3-3-3-3-3-3-3-3-3-3-3-3-3-3---------------------------------------

------------5555-7-5-5-7-|--------------------------------------------------------
-------------------------|-7-----------------------7-------------------------7----
3-3-3-3-3-3--------------|---9-999-999-999-999-999---9-999-999-999-999-999-9---9-7
-------------------------|--------------------------------------------------------
 Verse
----------------------------------------------------------------------------------
------------------------------------------------------7-----7---------------------
777-777-777-777-777-777-777-777-777-777-777-777-777-9---9-7---9-999-999-999-999-99
----------------------------------------------------------------------------------

----------------------------------------------------------------------------------
--7-------------------------7-----------------------------------------------------
9---9-999-999-999-999-999-9---9-7-777-777-777-777-777-777-777-777-777-777-777-777-
----------------------------------------------------------------------------------
                                                               Chorus
------------------------------------------------------------|---------------------
------7-----7-----------------------7-----------------------|---------------------
777-9---9-7---9-999-999-999-999-999---9-999-999-999-999-999-|---------------------
------------------------------------------------------------|-5-555-555-555-555-55

----------------------------------------------------------------------7-5---------
----------------------------------------------------------------5h7p5-----7-5-----
----------------------------------------5-555-555-555-555-555-5---------------3-3-
5-555-555-3-333-333-333-333-333-333-333-------------------------------------------

-------------5555-7-5-4-----------------------------------------------------------
------------------------5---------------------------------------------------------
3-3-3-3-3-3-3---------------------------------------------------------------------
--------------------------5-555-555-555-555-555-555-555-3-333-333-333-333-333-333-

-----------------------------------------------------7777-5-4---5-4-|-------------
--------------------------------------------------------------5-----|-------------
----555-555-555-555-555-555-555-555-3-3-3-3-3-3-3--3----------------|-7-777-777-77
333-----------------------------------------------------------------|-------------

----------------------------------------------------------------------------------
----------------------------------------------------------------------------------
7-777-777-777-777-5-555-555-555-555-555-555-555-4-444-444-444-444-444-444-444-3-33
----------------------------------------------------------------------------------

----------------------------------------------------------------------------------
----------------------------------------------------------------------------------
3-333-333-5-555-555-555-7-777-777-777-777-777-777-777-5-555-555-555-555-555-555-55
----------------------------------------------------------------------------------
                                                                 Solo
----------------------------------------------------------------------------------
----------------------------------------------------------------------------------
555-4-444-444-444-444-444-444-444-3-333-333-333-5-555-555-555-9-999-999-999-999-99
----------------------------------------------------------------------------------
              
----------------------------------------------------------------------------------
----------------------------------------------------------------------------------
9-999--7-9-999-999-999-999-999-999-7-999-999-999-999-999-999-7-9-9-9-10-10-10-11--
----------------------------------------------------------------------------------
                                              Chorus
--------------------------------------------|-------------------------------------
--------------------------------------------|-------------------------------------
11-11-12-12-12-13-14---10-11-12-13-14-15-16-|-------------------------------------
--------------------------------------------|-5-555-555-555-555-555-555-555-3-333-

------------------------------------------------------7-5-------------------------
------------------------------------------------5h7p5-----7-5---------------------
------------------------5-555-555-555-555-555-5---------------3-3-3-3-3-3-3-3-3-3-
333-333-333-333-333-333-----------------------------------------------------------

-5555-7-5-4-----------------------------------------------------------------------
------------5---------------------------------------------------------------------
--------------------------------------------------------------------------555-555-
--------------5-555-555-555-555-555-555-555-3-333-333-333-333-333-333-333---------

------------------------------------------7777-5-4---5-4--------------------------
---------------------------------------------------5------------------------------
555-555-555-555-555-555-3-3-3-3-3-3-3-3-3-----------------------------------------
---------------------------------------------------------5-555-555-555-555-555-555

----------------------------------------------------------------------------------
----------------------------------------------------------------------------------
----------------------------------5-555-555-555-555-555-5555-555-555-555-3-3-3-3-3
555-3-333-333-333-333-333-333-333-------------------------------------------------

-----------5555-7-5-4-------------------------------------------------------------
----------------------5-----------------------------------------------------------
-3-3-3-3-3------------------------------------------------------------------------
------------------------5-555-555-555-555-555-555-555-3-333-333-333-333-333-333-33

---------------------------------------------------------------------------------|
---------------------------5-5-5-4-4-4-------------------------------------------|
--5-555-555-555--5---3------------------3--0---0-0-0-0-0-0-0-0-0-0-0-0-0-0-0-0---|
3--------------------------------------------------------------------------------|
  development and support by
dmitry ivanov